Guitar Tabs, Chords and Lyrics
Major upgrade!! After one year development the new version of Chordie is now online! Please give feedback.


The Final Word   Metal Church

 
 PM------------------------------------------------------------------|
 |-----------------|-----------------|-----------------|------------------|
 |-----------------|-----------------|-----------------|------------------|
 |-----------------|-----------------|-----------------|------------------|
 |-----------------|-----------------|-----------------|------------------|
 |-2-2-2-2-2-2-2-2-|-2-2-2-2-2-2-2-2-|-2-2-2-2-2-2-2-2-|-2-2-2-2-2-2-2-2--|
 |-0-0-0-0-0-0-0-0-|-0-0-0-0-0-0-0-0-|-0-0-0-0-0-0-0-0-|-0-0-0-0-0-0-0-0--|
 PM------------------------------------------------------------------|
 |-----------------|-----------------|-----------------|-----------------|
 |-----------------|-----------------|-----------------|-----------------|
 |-----------------|-----------------|-----------------|-----------------|
 |-----------------|-----------------|-----------------|-----------------|
 |-2-2-2-2-2-2-2-2-|-2-2-2-2-2-2-2-2-|-2-2-2-2-2-2-2-2-|-2-2-2-2-2-2-2-2-|
 |-0-0-0-0-0-0-0-0-|-0-0-0-0-0-0-0-0-|-0-0-0-0-0-0-0-0-|-0-0-0-0-0-0-0-0-|
 PM| PM PM| PM| PM| PM PM| PM----------|

 


 3x


 

 
 ||------------------|-------------------|-----------------|-------------------||
 ||o-----------------|-------------------|-----------------|------------------o||
 ||------------------|-------------------|-----------------|-------------------||
 ||------9---9-9-----|-5-----7-(7)-10--9-|-----9---9-9-----|-9-----------------||
 ||o-----7---7-7-----|-7-----7-(7)--7--7-|-----7---7-7-----|-7----------------o||
 ||--0-0---0-----0-0-|---0-0-------------|-0-0---0-----0-0-|---0-0-0-0-0-0-0---||
 PM| PM PM| PM| PM| PM PM| PM--------|
 |-----------------|-------------------|-----------------|------------------|
 |-----------------|-------------------|-----------------|------------------|
 |-----------------|-------------------|-----------------|------------------|
 |-----9---9-9-----|-5-----7-(7)-10--9-|-----9---9-9-----|-9----------------|
 |-----7---7-7-----|-7-----7-(7)--7--7-|-----7---7-7-----|-7----------------|
 |-0-0---0-----0-0-|---0-0-------------|-0-0---0-----0-0-|---0-0-0-0-0-17\--|
 PM| PM PM| PM| PM| PM PM| PM----------|
 ||------------------|-------------------|-----------------|-------------------||
 ||o-----------------|-------------------|-----------------|------------------o||
 ||------------------|-------------------|-----------------|-------------------||
 ||------9---9-9-----|-5-----7-(7)-10--9-|-----9---9-9-----|-9-----------------||
 ||o-----7---7-7-----|-7-----7-(7)--7--7-|-----7---7-7-----|-7----------------o||
 ||--0-0---0-----0-0-|---0-0-------------|-0-0---0-----0-0-|---0-0-0-0-0-0-0---||

 


 


 Verse


 Gtrs I, II


 

 
 PM| PM PM| PM| PM| PM PM| PM----------|
 ||------------------|-------------------|-----------------|------------------|
 ||o-----------------|-------------------|-----------------|------------------|
 ||------------------|-------------------|-----------------|------------------|
 ||------9---9-9-----|-5-----7-(7)-10--9-|-----9---9-9-----|-9----------------|
 ||o-----7---7-7-----|-7-----7-(7)--7--7-|-----7---7-7-----|-7----------------|
 ||--0-0---0-----0-0-|---0-0-------------|-0-0---0-----0-0-|---0-0-0-0-0-0-0--|

 


 


 PM| PM PM| PM|


 

 
 |--------------------|-------------------|
 |--------------------|-------------------|
 |--------------------|-------------------|
 |-----10---10-10-----|-10-----10-10--10--|
 |-----10---10-10-----|--9------9--9--10--|
 |-8-8----8-------8-8-|----8-8------------|
 PM| PM PM| PM----------|
 |--------------------|------------------|
 |--------------------|------------------|
 |--------------------|------------------|
 |-----10---10-10-----|-10---------------|
 |-----10---10-10-----|-10---------------|
 |-8-8----8-------8-8-|----8-8-8-8-8-8-8-|
 PM| PM PM| PM| PM| PM PM| PM----------|
 |-----------------|-------------------|-----------------|-----------------|
 |-----------------|-------------------|-----------------|-----------------|
 |-----------------|-------------------|-----------------|-----------------|
 |-----9---9-9-----|-5-----7-(7)-10--9-|-----9---9-9-----|-9---------------|
 |-----7---7-7-----|-7-----7-(7)--7--7-|-----7---7-7-----|-7---------------|
 |-0-0---0-----0-0-|---0-0-------------|-0-0---0-----0-0-|---0-0-0-0-0-0-0-|

 


 


 PM| PM PM| PM|


 

 
 |--------------------|-------------------|
 |--------------------|-------------------|
 |--------------------|-------------------|
 |-----10---10-10-----|-10-----10-10--10--|
 |-----10---10-10-----|--9------9--9--10--|
 |-8-8----8-------8-8-|----8-8------------|
 PM| PM PM| PM----------|
 |--------------------|------------------|
 |--------------------|------------------|
 |--------------------|------------------|
 |-----10---10-10-----|-10---------------|
 |-----10---10-10-----|-10---------------|
 |-8-8----8-------8-8-|----8-8-8-8-8-8-8-|

 


 


 1.


 Gtr I


 

 
 |----------|------------|------------|--------|
 |----------|------------|------------|--------|
 |-2--------|-(2)--------|-(2)--------|-(2)----|
 |-2--------|-(2)--------|-(2)--------|-(2)----|
 |-0--------|-(0)--------|-(0)--------|-(0)----|
 |----------|------------|------------|--------|

 


 |


 | Gtr II


 

 
 |----------|------------|--5---------|-(5)----|
 |----------|------------|--5---------|-(5)----|
 |----------|------------|--2---------|-(2)----|
 |----------|------------|------------|--------|
 |----------|------------|------------|--------|
 |----------|------------|------------|--------|
 |-----------------|---------------------|-------------------|
 |-----------------|---------------------|-------------------|
 |-----------------|---------------------|-------------------|
 |-2---------------|-(2)-----------------|-(2)---------------|
 |-2---------------|-(2)-----------------|-(2)---------------|
 |-0---------------|-(0)-----------------|-(0)---------------|

 


 |


 | PM| PM PM| PM| PM-| PM PM|


 

 
 |-----------------|---------------------|-------------------|
 |-----------------|---------------------|-------------------|
 |-----------------|---------------------|-------------------|
 |-----9---9-9-----|--5------7-(7)-10--9-|-------9---9-9-----|
 |-----7---7-7-----|--7------7-(7)--7--7-|-------7---7-7-----|
 |-0-0---0-----0-0-|-----0-0-------------|--0--0---0-----0-0-|
 |-------------------|-------------------|-----------------------|
 |-------------------|-------------------|-----------------------|
 |-------------------|-------------------|-----------------------|
 |-(2)---------------|-(2)---------------|-(2)-------------------|
 |-(2)---------------|-(2)---------------|-(2)-------------------|
 |-(0)---------------|-(0)---------------|-(0)/------------------|

 


 |


 

 
 | PM------------------| PM PM| PM|
 |-------------------|-------------------|-----------------------|
 |-------------------|-------------------|-----------------------|
 |-------------------|-------------------|-----------------------|
 |--9----------------|-------9---9-9-----|--5-------7-(7)-10--9--|
 |--7----------------|-------7---7-7-----|--7-------7-(7)--7--7--|
 |-----0-0-0-0-0-0-0-|--0--0---0-----0-0-|------0-0--------------|

 


 


 ~~~~~~~~~~~~~~~~~~~~


 

 
 |-----------------|--------------------||
 |-----------------|-------------------o||
 |-----------------|--------------------||
 |-----------------|--------------------||
 |-----------------|-------------------o||
 |-6---------------|-4------------------||

 


 |


 | PM| PM PM| PM|


 

 
 |-----------------|--------------------||
 |-----------------|-------------------o||
 |-----------------|--------------------||
 |-----9---9-9-----|-5-----7-(7)-10--9--||
 |-----7---7-7-----|-7-----7-(7)--7--7-o||
 |-0-0---0-----0-0-|---0-0--------------||

 


 


 2.


 

 
 |----------|---------------------|------------|---------------|
 |----------|---------------------|------------|---------------|
 |-2--------|-2----(2)--(2)-------|------------|---------------|
 |-2--------|-2----(2)--(2)-----4-|-(4)--------|-4---4-(4)-----|
 |-0--------|-0----(0)--(0)-0-1-2-|-(2)--------|-3---2-(2)-----|
 |----------|---------------------|------------|------------3--|

 


 


 Gtr I


 

 
 |-------------------------------------|
 |-------------------------------------|
 |--2----------------------------------|
 |--2----------------------------------|
 |--0----------------------------------|
 |-------------------------------------|

 


 |


 | Gtr II


 

 
 |-------------------------------------|
 |-------------------------------------|
 |-------------------------------------|
 |-------------------------------------|
 |-12-11-10----10-11-12-11-10----10-11-|
 |----------12----------------12-------|
 |----------------------------------------|--------------------------------------|
 |----------------------------------------|--------------------------------------|
 |-(2)--------------------------2---------|--------------------------------------|
 |-(2)--------------------------2----4----|-(4)----------------------------------|
 |-(0)--------------------------0----2----|-(2)----------------------------------|
 |----------------------------------------|--------------------------------------|

 


 |


 

 
 |----------------------------------------|--------------------------------------|
 |----------------------------------------|--------------------------------------|
 |----------------------------------------|--------------------------------------|
 |----------------------------------------|--------------------------------------|
 |-12--11-10----10-11-12-11-10----10---11-|-14--13-11----11-12-14-13-11----11-13-|
 |-----------12----------------12---------|-----------14----------------14-------|

 


 


 Chorus


 $


 

 
 |---------------------------------------|------------------|-------------------|
 |---------------------------------------|------------------|-------------------|
 |---------------------------------------|------------------|-------------------|
 |-(4)-----------------4\----------------|------------------|-------------------|
 |-(2)-----------------2-----------------|--5-----6-----7---|------8-----9---9--|
 |---------------------------------------|--3p0-0-4p0-0-5p0-|---0--6p0-0-7---7--|

 


 |


 

 
 |---------------------------------------|-12---------------|-(12)----------12--|
 |---------------------------------------|------------------|-------------------|
 |---------------------------------------|--9---------------|--(9)-----------9--|
 |---------------------------------------|------------------|-------------------|
 |-14--13-11----11-12-14--13-11----11-13-|------------------|-------------------|
 |-----------14-----------------14-------|------------------|-------------------|
 |------------------|-------------------|
 |------------------|-------------------|
 |------------------|-------------------|
 |--7h9-9-7h9-9-7h9-|---9--7h9-9-7h9-9--|
 |--7---7-7---7-7---|---7--7---7-7---7--|
 |------------------|-------------------|

 


 |


 

 
 |-12---------------|-(12)--------------|
 |------------------|-------------------|
 |--9---------------|--(9)--------------|
 |------------------|-------------------|
 |------------------|-------------------|
 |------------------|-------------------|
 |------------------|---------------------|
 |------------------|---------------------|
 |------------------|---------------------|
 |------------------|---------------------|
 |------------------|---------------------|
 |--8-8-8-8-8-8-8-8-|---8--8-8-8-8-8--8-8-|

 


 |


 

 
 |------------------|---------------------|
 |-13---------------|-(13)-----------13---|
 |------------------|---------------------|
 |-10---------------|-(10)-----------10---|
 |------------------|---------------------|
 |------------------|---------------------|
 |------------------|------------------|------------------|-------------------|
 |------------------|------------------|------------------|-------------------|
 |------------------|------------------|------------------|-------------------|
 |------------------|------------------|------------------|-------------------|
 |--5-----6-----7---|------8-----9--9--|--5-----6-----7---|------8-----9---9--|
 |--3p0-0-4p0-0-5p0-|---0--6p0-0-7--7--|--3p0-0-4p0-0-5p0-|---0--6p0-0-7---7--|

 


 |


 

 
 |-12---------------|-(12)-------------|-12---------------|-(12)----------12--|
 |------------------|------------------|------------------|-------------------|
 |--9---------------|--(9)-------------|--9---------------|--(9)-----------9--|
 |------------------|------------------|------------------|-------------------|
 |------------------|------------------|------------------|-------------------|
 |------------------|------------------|------------------|-------------------|
 |------------------|-------------------|------------------|--------------------|
 |------------------|-------------------|------------------|--------------------|
 |------------------|-------------------|------------------|--------------------|
 |--7h9-9-7h9-9-7h9-|---9--7h9-9-7h9-9--|------------------|--------------------|
 |--7---7-7---7-7---|---7--7---7-7---7--|------------------|--------------------|
 |------------------|-------------------|--8-8-8-8-8-8-8-8-|---8--8-8-8-8-8-8-8-|

 


 |


 

 
 |-15---------------|-(15)--------------|------------------|--------------------|
 |------------------|-------------------|-13---------------|-(13)---------------|
 |-12---------------|-(12)--------------|------------------|--------------------|
 |------------------|-------------------|-10---------------|-(10)---------------|
 |------------------|-------------------|------------------|--------------------|
 |------------------|-------------------|------------------|--------------------|

 


 


 To Coda


 

 
 |----------------|----------------|-----------------|---------------------|
 |----------------|----------------|-----------------|---------------------|
 |--2---2-(2)--2--|--(2)-2---2--2--|-2---------------|-(2)-----------------|
 |--2---2-(2)--2--|--(2)-2---2--2--|-2---------------|-(2)-----------------|
 |--0---0-(0)--0--|--(0)-0---0--0--|-0---------------|-(0)-----------------|
 |----------------|----------------|-----------------|---------------------|

 


 |


 | PM| PM PM| PM|


 

 
 |-15-------------|-(15)-----------|-----------------|---------------------|
 |----------------|----------------|-----------------|---------------------|
 |-12-------------|-(12)-----------|-----------------|---------------------|
 |----------------|----------------|-----9---9-9-----|--5------7-(7)-10--9-|
 |----------------|----------------|-----7---7-7-----|--7------7-(7)--7--7-|
 |----------------|----------------|-0-0---0-----0-0-|-----0-0-------------|
 |-------------------|-------------------|
 |-------------------|-------------------|
 |-(2)---------------|-(2)---------------|
 |-(2)---------------|-(2)---------------|
 |-(0)---------------|-(0)---------------|
 |-------------------|-------------------|

 


 |


 

 
 | PM-| PM PM| PM-------------
 |-------------------|-------------------|
 |-------------------|-------------------|
 |-------------------|-------------------|
 |-------9---9-9-----|--9----------------|
 |-------7---7-7-----|--7----------------|
 |--0--0---0-----0-0-|-----0-0-0-0-0-0-0-|
 |-------------------|---------------------|
 |-------------------|---------------------|
 |-(2)---------------|-(2)-----------------|
 |-(2)---------------|-(2)-----------------|
 |-(0)---------------|-(0)-----------------|
 |-------------------|---------------------|

 


 |


 |-----| PM PM| PM|


 

 
 |-------------------|---------------------|
 |-------------------|---------------------|
 |-------------------|---------------------|
 |-------9---9-9-----|--5------7-(7)-10--9-|
 |-------7---7-7-----|--7------7-(7)--7--7-|
 |--0--0---0-----0-0-|-----0-0-------------|
 |-----------------|-----------------|
 |-----------------|-----------------|
 |-----------------|-----------------|
 |-----------------|-----------------|
 |-----------------|-----------------|
 |-----------------|-----------------|

 


 |


 

 
 | PM| PM PM| PM----------|
 |-----------------|-----------------|
 |-----------------|-----------------|
 |-----------------|-----------------|
 |-----9---9-9-----|-9---------------|
 |-----7---7-7-----|-7---------------|
 |-0-0---0-----0-0-|---0-0-0-0-0-0-0-|


Important: The song above is NOT stored on the Chordie server. The original song is hosted at www.xguitar.com. Chordie works as a search engine and provides on-the-fly formatting. Chordie does not index songs against artists'/composers' will. To remove this song please click here.

This song is displayed as text-only. Transposing and tuning is only available for chordpro-songs.
Rate #1 of 1 versions

Login - add to songbook

SHARE PAGE  




You need to log in to post comments