Guitar Tabs, Chords and Lyrics
Major upgrade!! After one year development the new version of Chordie is now online! Please give feedback.


Attitude   Metallica

 
 eb---------------------------------------------
 Bb---------------------------------------------
 Gb--/9-7----7------------------/9-7----7-------
 Db-------10---10-7~~--5-5-5-7-------10---10-7~~
 Ab--------------------5-5-5-7------------------
 Eb------------------0-3-3-3-5------------------

 


 pm........


 intro


 


 [2)]  

 
 eb--------------------------
 Bb--------------------------
 Gb--------------/9-7----7---
 Db--/7-5---5---------10---10
 Ab-------7---7--------------
 Eb--------------------------

 


 


 [3)]  


 

 
 Db--4-9--------4-9-------4-9-------4-----------4-9
 Ab--5-7--------5-7-------5-7-------5---5-7---7-5-7
 Eb-------0-0-0-----0-0-0-----0-0-0---0-3-5-0-5----

 


 pm.... ..... ..... . .


 


 [4)]  


 

 
 Db--------9-9--------------9-9--------------9-9---------------2
 Ab--------7-7-----7-5------7-7-----5-7------7-7-----7-5--7-5--2
 Eb--0-0-0-0-0-0-0-5-3-3h5--0-0-0-0-3-5-5p3--0-0-0-0-5-3--5-3--0

 


 pm.... ... ... ... ... ... ...


 verse


 "Suppose I say I'm never satisfied."


 


 [5a)]  

 
 Db--7-7-8---5----------7-7-8---5----------7-7-8---5--5-5-5-5-7
 Ab--5-5-6-0-3------0-3-5-5-6-0-3------0-3-5-5-6-0-3--3-3-3-3-5
 Eb------------------------------------------------------------

 


 pm ... . ... .


 


 5b) continuation of 5a


 

 
 Db------------------------------------------------------------
 Ab--7-7-8---5----------7-7-8---5----------7-7-8---5----5-5-5-7
 Eb--5-5-6-0-3--0-0-0h3-5-5-6-0-3--0-0-0h3-5-5-6-0-3--0-3-3-3-5

 


 pm ....... . ....... . .


 chorus


 "Oh I hunger, I hunger I eat. Born into attitude."


 


 6) James


 ^


 

 
 eb---------------------- ---------10-10-10-10-15-15-15-15
 Bb--10-8------------10-- -8-8-8-8------------------------
 Gb---9---9--7---7------9 3 times --------------------------------
 Db------------9---9----- (w/slight --------------------------------
 Ab---------------------- variations) --------------------------------
 Eb---------------------- --------------------------------


Important: The song above is NOT stored on the Chordie server. The original song is hosted at www.xguitar.com. Chordie works as a search engine and provides on-the-fly formatting. Chordie does not index songs against artists'/composers' will. To remove this song please click here.

This song is displayed as text-only. Transposing and tuning is only available for chordpro-songs.
Rate #2 of 4 versions

Jango Player

Login - add to songbook

SHARE PAGE  




You need to log in to post comments