Guitar Tabs, Chords and Lyrics
Server problems seems to be fixed. Chordie has been experiencing problems with songs disappearing. These issues now seems to be fixed, but still verifying the fix. If you find anything strange, please email admin@chordie.com.


Resurrection  Misfits

Title: Resurrection
Album: American Psycho
Transcribed by: Pierre Mathieu
Email: el_camello@metallica.com
.... = PM
________________________________________
Drums
Intro
[D] [B] [G] [A]  
 
 D-77777--44444-----------------------
 A-55555--22222--55555--77777---------
 E---------------33333--55555---------

Verse1
[D] [B] [G] [A] 
 
 D-7-7777--4-4444-------------------------
 A-5-5555--2-2222--5-5555--7-7777---------
 E-----------------3-3333--5-5555---------

.... .... .... ....
Riff2
[G] [A] [B] [A]  
 
 D----------------------------------------
 A-5555-7777-99999999-7-------------------
 E-3333-5555-77777777-5-------------------

........
Riff3
[G] [A] [D] [C#] [B] [A]  
 
 D------------7---6---4---2---------------
 A-5555-7777--5---4---2---0---------------
 E-3333-5555------------------------------

Fill1
[GGGG] [AAAA]  
Outro
[D]________[B]_________[G]__________[A]__________[D]____
Intro X2
Verse1 X2
Riff2 X2
Riff3
Fill1
Intro X2
Riff2
Riff3
Intro X4
Outro
Very easy song. --Listen to song for the right timing !---,
I think its fairly accurate.
I think its tuned down a half-step (Eb, Ab, Db, Gb, Bb, eb)
but it sounds fine when I play it in standard tuning.

Important: The song above is NOT stored on the Chordie server. The original song is hosted at www.xguitar.com. Chordie works as a search engine and provides on-the-fly formatting. Chordie does not index songs against artists'/composers' will. To remove this song please click here.

Text color:
Chord color:
Chord grids: 
Font size:    
Page size: 

A B C# D G
Rate #2 of 6 versions

Jango Player

Login - add to songbook

SHARE PAGE  



You need to log in to post comments