Guitar Tabs, Chords and Lyrics
Major upgrade!! After one year development the new version of Chordie is now online! Please give feedback.


Heart Cooks Brain  Modest Mouse

Author/Artist: Modest Mouse
Title: Heart Cooks Brain
Album: The Lonesome Crowded West
Email: scott_houle@hotmail.com
Standard Tuning
Intro - The part on the low E is the Bassline, the harmonics are syncopated
the bass.
[E] [C] [B] [G]  
 
 ------------------------------------------------------------------------------
 -^-^-^-^--^-^-^-^--^-^-^-^--^-^-^-^-------------------------------------------
 -5-5-5-5--5-5-5-5--5-5-5-5--5-5-5-5-------------------------------------------
 ------------------------------------------------------------------------------
 ------------------------------------------------------------------------------
 -0-0-0-0--8-8-8-8--7-7-7-7--3-3-3-3-------------------------------------------

Rhythm parts - the only difference it that sometimes the G is strummed, and
sometimes it is picked, both are below.
[E] [C] [B] [G]  
 
 ------------------------------------------------------------------------------
 ------------------------------------------------------------------------------
 ------9-----------------------------------------------------------------------
 -------------10---------9----5-5-5-5------------------------------------------
 -7-7---7----------------------------------------------------------------------
 -0-0-----8-8----8---7-7---7--3-3-3-3------------------------------------------

[E] [C] [B] [G]  
 
 ------------------------------------------------------------------------------
 ------------------------------------------------------------------------------
 -----9------------------------------------------------------------------------
 -------------10--------9--------5---------------------------------------------
 -7-7---7----------------------------------------------------------------------
 -0-0-----8-8---8---7-7---7--3-3---3-------------------------------------------

Lead Guitar - not 100%, but will give you an idea
 
 -----------5------------------------------------------------------------------
 ---8-5---5---8-5---8-5---5-8-5------------------------------------------------
 -7-----7---------7-----7------------------------------------------------------
 ------------------------------------------------------------------------------
 ------------------------------------------------------------------------------
 ------------------------------------------------------------------------------

The bend after the days go so slow part.
 
 ------------------------------------------------------------------------------
 ------------------------------------------------------------------------------
 ------------------------------------------------------------------------------
 --9brbrbr---------------------------------------------------------------------
 ------------------------------------------------------------------------------
 ------------------------------------------------------------------------------

The scratches and turntable effects can be achieved by rubbing your pick
and/or
fingers over the strings, whammy bar pull up's, and maybe use a wah to blend
[in]some of the uneven sounds.

Important: The song above is NOT stored on the Chordie server. The original song is hosted at www.xguitar.com. Chordie works as a search engine and provides on-the-fly formatting. Chordie does not index songs against artists'/composers' will. To remove this song please click here.

Text color:
Chord color:
Chord grids: 
Font size:    
Page size: 

B C E G
Rate #1 of 4 versions

Login - add to songbook

SHARE PAGE  




You need to log in to post comments