Guitar Tabs, Chords and Lyrics
Major upgrade!! After one year development the new version of Chordie is now online! Please give feedback.


Trailer Trash  Modest Mouse

Note: Its all nice/.../All nite
Part 1 (0:00)->Repeat ->(1:00)
Guitar 1 1 + 2 + 3 + 4 + 1 + 2 + 3 + 4 + 1 + 2 + 3 + 4 + 1 + 2 + 3 + 4 +
Rhythm D D D U UDDUDU
[G] [D] [C] [C]  
 
 e--------|----------------|----------------|----------------|---------------|
 B--------|----------------|----------------|----------------|---------------|
 G--------|12--------------|----------------|----------------|0--------------|
 D--------|12--------------|12--------------|10--------------|10-------------|
 A--------|10--------------|12--------------|10--------------|10-------------|
 E--------|----------------|10--------------|8---------------|8--------------|

Part 1 (0:00)->Repeat ->(1:00)
GUITAR 2 1 + 2 + 3 + 4 + 1 + 2 + 3 + 4 + 1 + 2 + 3 + 4 + 1 + 2 + 3 + 4 +
[G] [D] [C] [C]  
 
 e--------|--14----14----14|--10----10----10|--8-----8-----8-|--8-----8----8-|
 B--------|----12----12----|----10----10----|----8-----8-----|----8-----8----|
 G--------|12----12----12--|11----11----11--|9-----9-----9---|9-----9-----9--|
 D--------|----------------|----------------|----------------|---------------|
 A--------|----------------|----------------|----------------|---------------|
 E--------|----------------|----------------|----------------|---------------|

Part 2 (1:00)->Repeat ->(1:46)
Guitar 1 1 + 2 + 3 + 4 + 1 + 2 + 3 + 4 + 1 + 2 + 3 + 4 + 1 + 2 + 3 + 4 +
Palm Mute D D D D D D D D
[G] [D] [C] [C]  
 
 e--------|----------------|----------------|----------------|---------------|
 B--------|----------------|----------------|----------------|---------------|
 G--------|12----12--------|------0---------|----------------|0--------------|
 D--------|12--------------|12--------------|10--------------|10-------------|
 A--------|10--------------|12--------------|10--------------|10-------------|
 E--------|----------------|10--------------|8---------------|8--------------|

Part 2 (1:01)->Repeat ->(1:46)
Guitar 2 1 + 2 + 3 + 4 + 1 + 2 + 3 + 4 + 1 + 2 + 3 + 4 + 1 + 2 + 3 + 4 +
[G] [D] [C] [C]  
 
 e--------|----------------|----------------|----------------|---------------|
 B--------|----------------|----------------|----------------|---------------|
 G--------|----------------|----------------|----------------|---------------|
 D--------|9-9-9-12----9---|12----------9---|10-9-10-9-10-9--|10-9-10-9-10-9-|
 A--------|----------------|----------------|----------------|---------------|
 E--------|----------------|----------------|----------------|---------------|

Part 3 (1:46)->Repeat ->(2:34)
Guitar 1 1 + 2 + 3 + 4 + 1 + 2 + 3 + 4 + 1 + 2 + 3 + 4 + 1 + 2 + 3 + 4 +
Rhythm D D D U UDDUDU
[G] [D] [C] [C]  
 
 e--------|----------------|----------------|----------------|---------------|
 B--------|----------------|----------------|----------------|---------------|
 G--------|12--------------|----------------|----------------|0--------------|
 D--------|12--------------|12--------------|10--------------|10-------------|
 A--------|10--------------|12--------------|10--------------|10-------------|
 E--------|----------------|10--------------|8---------------|8--------------|

Part 3 (1:46)->Repeat ->(2:34)
GUITAR 2 1 + 2 + 3 + 4 + 1 + 2 + 3 + 4 + 1 + 2 + 3 + 4 + 1 + 2 + 3 + 4 +
[G] [D] [C] [C]  
 
 e--------|--14----14----14|--10----10----10|--8-----8-----8-|--8-----8-----8-|
 B--------|----12----12----|----10----10----|----8-----8-----|----8-----8-----|
 G--------|12----12----12--|11----11----11--|9-----9-----9---|9-----9-----9---|
 D--------|----------------|----------------|----------------|----------------|
 A--------|----------------|----------------|----------------|----------------|
 E--------|----------------|----------------|----------------|----------------|

Part 4 (2:34)->Repeat ->(3:32)
Guitar 1 1 + 2 + 3 + 4 + 1 + 2 + 3 + 4 + 1 + 2 + 3 + 4 + 1 + 2 + 3 + 4 +
Palm Mute D D D D D D D D
[G] [D] [C] [C]  
 
 e--------|----------------|----------------|----------------|---------------|
 B--------|----------------|----------------|----------------|---------------|
 G--------|12----12--------|------0---------|----------------|0--------------|
 D--------|12--------------|12--------------|10--------------|10-------------|
 A--------|10--------------|12--------------|10--------------|10-------------|
 E--------|----------------|10--------------|8---------------|8--------------|

Part 4 (2:34)->Repeat ->(3:32)
Guitar 2 1 + 2 + 3 + 4 + 1 + 2 + 3 + 4 + 1 + 2 + 3 + 4 + 1 + 2 + 3 + 4+
[G] [D] [C] [C]  
 
 e--------|----------------|----------------|----------------|---------------|
 B--------|----------------|----------------|----------------|---------------|
 G--------|----------------|----------------|----------------|---------------|
 D--------|9-9-9-12----9---|12----------9---|10-9-10-9-10-9--|10-9-10-9-10-9-|
 A--------|----------------|----------------|----------------|---------------|
 E--------|----------------|----------------|----------------|---------------|

Part 5 (3:32)->Repeat ->(4:08)
Guitar 1 1 + 2 + 3 + 4 + 1 + 2 + 3 + 4 + 1 + 2 + 3 + 4 + 1 + 2 + 3 + 4 +
W/ Whammy> Out/In Out/In Out/In Out/In
[G] [D] [C] [C]  
 
 e--------|10--------------|10--------------|8---------------|8--------------|
 B--------|12--------------|10--------------|8---------------|8--------------|
 G--------|12--------------|11--------------|9---------------|9--------------|
 D--------|12--------------|12--------------|10--------------|10-------------|
 A--------|10--------------|12--------------|10--------------|10-------------|
 E--------|----------------|10--------------|8---------------|8--------------|

Part 5 (3:32)->Repeat ->(4:08)
GUITAR 2 1 + 2 + 3 + 4 + 1 + 2 + 3 + 4 + 1 + 2 + 3 + 4 + 1 + 2 + 3 + 4 +
[G] [D] [C] [C]  
 
 e--------|--14----14----14|--10----10----10|--8-----8-----8-|--8-----8-----8-|
 B--------|----12----12----|----10----10----|----8-----8-----|----8-----8-----|
 G--------|12----12----12--|11----11----11--|9-----9-----9---|9-----9-----9---|
 D--------|----------------|----------------|----------------|----------------|
 A--------|----------------|----------------|----------------|----------------|
 E--------|----------------|----------------|----------------|----------------|

Part 6 (4:08)->Repeat ->(END)
Guitar 1 1 + 2 + 3 + 4 + 1 + 2 + 3 + 4 + 1 + 2 + 3 + 4 + 1 + 2 + 3 + 4 +
[G] [D] [C] [C]  
 
 e--------|10--------------|10--------------|8---------------|8--------------|
 B--------|12--------------|10--------------|8---------------|8--------------|
 G--------|12--------------|11--------------|9---------------|9--------------|
 D--------|12--------------|12--------------|10--------------|10-------------|
 A--------|10--------------|12--------------|10--------------|10-------------|
 E--------|----------------|10--------------|8---------------|8--------------|

Part 6 (4:08)->(end)
GUITAR 3 1 + 2 + 3 + 4 + 1 + 2 + 3 + 4 + 1 + 2 + 3 + 4 + 1 + 2 + 3 + 4 +
Solo/out G D C C
 
 e--------|----------------|----------------|----------------|---------------|
 B--------|----------------|----------------|----------------|---------------|
 G--------|----------------|----------------|----------------|---------------|
 D--------|12-10p9h10p9----|12--10p9h10-----|12-10p9h10p9----|10-9---10-9----|
 A--------|------------10--|----------------|------------10--|-----10----10--|
 E--------|----------------|----------------|----------------|---------------|

GUITAR 3 1 + 2 + 3 + 4 + 1 + 2 + 3 + 4 + 1 + 2 + 3 + 4 + 1 + 2 + 3 + 4 +
Solo/out G D C C
 
 e--------|----------------|----------------|----------------|---------------|
 B--------|----------------|----------------|----------------|---------------|
 G--------|----------------|----------------|----------------|---------------|
 D--------|12-10p9h10p9----|12--10p9h10-----|12-10p9h10p9h10p|9h10p9---------|
 A--------|------------10--|------------10--|----------------|---------------|
 E--------|----------------|----------------|----------------|---------------|

GUITAR 3 1 + 2 + 3 + 4 + 1 + 2 + 3 + 4 + 1 + 2 + 3 + 4 + 1 + 2 + 3 + 4 +
Solo/out G D C C
 
 e--------|----------------|----------------|----------------|---------------|
 B--------|----------------|----------------|----------------|---------------|
 G--------|----------------|----------------|----------------|---------------|
 D--------|12-10p9h10p9----|12-10p9h10p9----|12-10p9h10p9----|12-10p9h10p9---|
 A--------|------------10--|------------10--|------------10--|------------10-|
 E--------|----------------|----------------|----------------|---------------|

GUITAR 3 1 + 2 + 3 + 4 + 1 + 2 + 3 + 4 + 1 + 2 + 3 + 4 + 1 + 2 + 3 + 4 +
Solo G D C C
 
 e--------|----------------|----------------|----------------|-----------------|
 B--------|----------------|----------------|----------------|-----------------|
 G--------|----------------|----------------|----------------|-----------------|
 D--------|12-10p9h10p9----|12-10p9h10p9----|12-10p9h10p9h10p|9h10p9A----------|
 E--------|----------------|----------------|----------------|-----------------|


Important: The song above is NOT stored on the Chordie server. The original song is hosted at www.xguitar.com. Chordie works as a search engine and provides on-the-fly formatting. Chordie does not index songs against artists'/composers' will. To remove this song please click here.

Text color:
Chord color:
Chord grids: 
Font size:    
Page size: 

C D G
Rate #3 of 8 versions

Jango Player

Login - add to songbook

SHARE PAGE  




You need to log in to post comments