Guitar Tabs, Chords and Lyrics
Major upgrade!! After one year development the new version of Chordie is now online! Please give feedback.


Beach Side Property   Modest Mouse

 
 e|---------8~----------------8~---------------8------------------|
 b|---------8~----------------8~---------------8~-----------------|
 g|---------8~----------------8~---------------8~-----------------|
 d|---------8~----------------8~---------------8~-----------------|
 a|--10-10--8-----10-10-10-10-8---10-10-10-10--8--1010-10-1010----|
 E|--11-11--11----11-11-11-11-11--11-11-11-11--11-1111-11-1111----|

 


 U D U D U D U D


 


 

 
 e|-------------------|
 b|-------------------|
 g|-12----15---13--12-|
 d|-x-----x----x---x--|
 a|-10----13---11--10-|
 E|-------------------|

 


 


 Starts @ 0:13


 

 
 e|----------------------------------------|
 b|----------------------------------------|
 g|----------------------------------------|
 d|--3/5 3/5-3/5/-10-8-6------8-10---------|
 a|----------------------8-10--------------|
 E|----------------------------------------|

 


 (this will be heard with most of the riffs afters riff 1)


 


 starts @ 0:21


 

 
 e|-----------------------------------|
 b|-----------------------------------|
 g|----12^12^12^12^12-151515-13-12----|

 


 


 Starts @ 1:03


 

 
 e|----------------------------------|
 b|----------------------------------|
 g|---12^-13^-12^12^-15151515-13-12--|

 


 


 Starts @ 1:38


 

 
 e|---------------------------------------------------|
 b|----------------------------8----------------------|
 g|---12-7-5-4-5-4-0---0-4-5-7---7-5 4h5p4h5p4h5p4-0--|
 D|---------------------------------------------------|
 A|---------------------------------------------------|
 E|---------------------------------------------------|

 


 


 Starts @ 1:50 (there are certain bends on the g frets 2&7)


 

 
 e|----------------------|--0~-------0---------|
 b|----------------------|--0~-------0---------|
 g|-----7------2---------|--2~---222-7---------|
 d|------5-------0-------|-------202-77--------|
 a|-------[5]-----[0]----|-------000-55--------|
 E|----------------------|---------------------|

 


 (not sure about this,or the strum pattern)


 


 Starts @ 3:27 Riff 1B


 

 
 e|---------------------|---1111--11--------------------------------|
 b|---------------------|---0000--00--------------------------------|
 g|---------------------|---0000--00--------------------------------|
 d|-2^-2^---222---------|---2222--22---2-3-5-3-2---2-3-5-3-2--------|
 a|----[3]-----333-2-0--|---3333--33-------------3-----------3------|
 E|---------------------|-------------------------------------------|

 


 (bend an pluck strings in a power F chord)-


 


 

 
 e|-----------------------------------------------(5)-----|
 b|-----------------------------------------------(5)-----|
 g|-----------------------------------------------(5)-----|
 d|---2-3-2-------3V2---2-3-5-3-2-------------------------|
 a|---------3-0-3-----------------3-5-3-2-3-5-3-2---------|
 E|-------------------------------------------------------|

 


 


 Back to Riff 1B


 


 echo, triplet, reverb


 

 
 e|--------------------------------------|
 b|--------------------------------------|
 g|--------------------------------------|
 d|---2----------------------------------|
 a|-----3-2-0----------------------------|
 E|--------------------------------------|


Important: The song above is NOT stored on the Chordie server. The original song is hosted at www.xguitar.com. Chordie works as a search engine and provides on-the-fly formatting. Chordie does not index songs against artists'/composers' will. To remove this song please click here.

This song is displayed as text-only. Transposing and tuning is only available for chordpro-songs.
Rate #2 of 7 versions

Login - add to songbook

SHARE PAGE  




You need to log in to post comments