Guitar Tabs, Chords and Lyrics
Major upgrade!! After one year development the new version of Chordie is now online! Please give feedback.


Space Travel Is Boring  Modest Mouse

Space Travel is Boring - By Modest Mouse
First Part (0:02
[E] [--3--]  
[A]D [--2--]--0-- (just a C)
G --0-- (strum pattern not hard at all
B --3-- just listen to CD)
[E] [--3--]  
im not sure if your finges need to be on the
3rd frets for B and high E. Do which sounds
better or is easier for you.
"that you can't see air or time" (0:08)
 
 E ---0----0--0-----0--0-----0--0-----
 A ---7----5--7-----5--7-----3--2-----
 D ---9----7--9B----7--9B----5--4-----
 G -----------------------------------
 B -----------------------------------
 E -----------------------------------

listen to CD for strum pattern
one full bend (strum it a little while bending)
then play the 1st part again (0:22)
then play the 2nd part again (0:28)
then play the 1st part again (0:42)
then this (0:48)
"try, try, try"
 
 E ---0---
 A ---5---
 D ---7--- (strum 3 times)
 G -------
 B -------
 E -------
 E --0-0--0-0--0- E --0---0---0-\-0-\-0---
 A --7-7--5-5--3- A --7---5---3-\-5-\-7---
 D --9-9--7-7--5- D --9---7---5-\-7-\-9---
 G -------------- G ----------------------
 B -------------- B ----------------------
 E -------------- E ----------------------


Important: The song above is NOT stored on the Chordie server. The original song is hosted at www.xguitar.com. Chordie works as a search engine and provides on-the-fly formatting. Chordie does not index songs against artists'/composers' will. To remove this song please click here.

Text color:
Chord color:
Chord grids: 
Font size:    
Page size: 

A E
Rate #3 of 4 versions

Login - add to songbook

SHARE PAGE  




You need to log in to post comments