Guitar Tabs, Chords and Lyrics
Major upgrade!! After one year development the new version of Chordie is now online! Please give feedback.


Talking Shit About a Pretty Sunset  Modest Mouse

Modest Mouse - Talking Shit About a Pretty Sunset
Tabbed By: skittlefiend13
Email: bobdarnit@hotmail.com
Tuning: Standard (E A D G B E)
[E] [G#] [F#] [E]  
 
 E|---------------------------------------------------------------------------||
 B|---------------------------------------------------------------------------||
 G|--9-----13------11-----9--------------------------------------------------||
 D|--9-----13------11-----9---------------------------------------------------||
 A|--7-----11------9------7---------------------------------------------------||
 E|---------------------------------------------------------------------------||

Listen for the number of strums and how long you play it. Then
 
 E|-------------------------------------------------12-12-------12-12---------||
 B|-12----12----12-10-9-----12----12----12-10-9-----------12-12-------12-12---||
 G|----13----13----------------13----13---------------------------------------||
 D|---------------------------------------------------------------------------||
 A|---------------------------------------------------------------------------||
 E|---------------------------------------------------------------------------||
 E|---------------------------------------------------------------------------||
 B|-10-9-10-------------------12----12----12-10-9-----12----12----12-10-9-----||
 G|---------9----9-9-9-9~-------13----13----------------13----13--------------||
 D|---------------------------------------------------------------------------||
 A|---------------------------------------------------------------------------||
 E|---------------------------------------------------------------------------||
 E|-12-12-------12-12-----------------12-12-------12-12-----------------------||
 B|-------12-12-------12-12-10-9-10---------12-12-------12~-------------------||
 G|---------------------------------9-----------------------------------------||
 D|---------------------------------------------------------------------------||
 A|---------------------------------------------------------------------------||
 E|---------------------------------------------------------------------------||

Then repeat beginning chords until
 
 E|---------------------------------------------------------------------------||
 B|-------12-------12-------12------12----12-------12----12----12----12----10-||
 G|-13-13----13-13----13-13----13-9----13----13-11----11----------------------||
 D|---------------------------------------------------------13----13----11----||
 A|---------------------------------------------------------------------------||
 E|---------------------------------------------------------------------------||
 E|---------------------------------------------------------------------------||
 B|--------------12----12----12----12----12----12----10-----------------------||
 G|-9h11 9h11-13----13----11----11-----------------------9h11-9h11------------||
 D|-------------------------13----13----11------------------------------------||
 A|---------------------------------------------------------------------------||
 E|---------------------------------------------------------------------------||

Repeat that for a while until the ending
Then the ending goes something similar to
 
 E|------------------||
 B|----10------------||
 G|-------9----------||
 D|-11------11-------||
 A|------------------||
 E|------------------||

Repeat a lot. That's all I got for you people. Enjoy!
Talking Shit About a Pretty Sunset - Modest Mouse
Tabbed by: Jwrussert
Email: Jwrussert@gmail.com
Tuning: EADGBe
Intro:
[E5] [G#5] [F#5] [E5]  
 
 e|----------------------|
 B|----------------------|
 G|-9----13----11----9---|
 D|-9----13----11----9---|
 A|-7----11----9-----7---|
 E|----------------------|

It sounds best if you start the first E5 with a down stroke(toward the 1st string) and
second E5 with an up stroke (towards the 6th string). Or maybe I'm just crazy.
Continue to play this progression with a different strumming pattern throughout most of
song.
Solo (1:40 into the song):
Palm Mute
 
 e|-------------------------------|
 B|-12-9h10h12-12-9h10h12-12-10-9-|
 G|-9--9-------9--9-------9--9--9-| x2
 D|-------------------------------|
 A|-------------------------------|
 E|-------------------------------|

Play that twice and then this:
Harmonics Palm Mute Harmonics
 
 e|-+12+12+-------+12+12+-----------------+12+12+-------+12+12+-----|
 B|--------+12+12+--------+12+-12-9-10-7---------+12+12+------------|
 G|-----------------------------------------------------------------| x2
 D|------------------------------------------------------------12---|
 A|-----------------------------------------------------------------|
 E|-----------------------------------------------------------------|

Then repeat the entire solo one more time and then go back into the intro chords. After
them for a while start playing this next part which starts at about 2:43 minutes into
song.
Talking shit...
 
 e|--------------------------------------------------|
 B|----12----12----12----12---8---8------------------|
 G|-12----12----11----11----9---9---------8h10-8h10--| repeat this a
 D|---------------------------------11-11------------| bunch of times
 A|--------------------------------------------------|
 E|--------------------------------------------------|

Then Isaac Brock just repeats this a bunch of times and then goes off on a bunch of
things that are pretty much based on this.
| / slide up
| \ slide down
| h hammer-on
| p pull-off
| ~ vibrato
| + harmonic
| x Mute note

Important: The song above is NOT stored on the Chordie server. The original song is hosted at www.xguitar.com. Chordie works as a search engine and provides on-the-fly formatting. Chordie does not index songs against artists'/composers' will. To remove this song please click here.

Text color:
Chord color:
Chord grids: 
Font size:    
Page size: 

E E5 F# F#5 G# G#5
Rate #3 of 4 versions

Login - add to songbook

SHARE PAGE  




You need to log in to post comments