Guitar Tabs, Chords and Lyrics
Server problems seems to be fixed. Chordie has been experiencing problems with songs disappearing. These issues now seems to be fixed, but still verifying the fix. If you find anything strange, please email admin@chordie.com.


Fall Into Sleep  Mudvayne

Song: Fall Into Sleep
Band: [M] [U] [D] [V] [A] [Y] [N] [E]
Album: Lost and Found
Tabber: Joey Mercier
This song was a real mission to tab..
im working on the interlude now... ive loaded to song into Adobe Audition, removed the vocals and slow the
tempo down, preserving the pitch, so it can be tabbed through the drums and bass.
corrections, questions, suggestions - ti_mers@hotmail.com
PS, this song was made on Guitar Pro.. if you want the guitar pro file, get it on MySongBook.com.
____________________________________________________________________________________________________________
corrections:
July 8th - 2005
re-made the verse and corrected the chorus interlude, they are both now correct
corrected the guitar pro file... email me to get it!
Septembre 7th - 2005
finally got the sucker... tab made on MySongBook.com, have a look!
please rate!
Tuning - Drop C (CGCFAD)
Intro:
 
 |-------------------|
 |-------------------|
 |-------------------|
 |-------------------|
 |-3h5-5-5-5-5-5-5-5-|
 |-0---0-0-0-0-0-0-0-|

Verse:
 
 |-------------------------------------------------|
 |-------------------------------------------------|
 |-------------------------------------------------|
 |--0-10h12------12----0-10h12-0-10h12-12h13p12-10-| play 3x
 |-------------------------------------------------|
 |----------0h10----12-----------------------------|
 |----------------------------------|
 |----------------------------------|
 |------7---10---10/-----5-------7--|
 |--------8----8-----------3--------|
 |----8----------------3-------5----|
 |--8----------------3-------5------|

Chorus:
 
 |-----------------------------------------------------|
 |-----------------------------------------------------|
 |----------------10-9-7-9-10-7------------------------|
 |-------------7~ -x-x-x-x--x-x--------------10~ ------|
 |-0-0-0-0-0-0-7~ -8-7-5-7--8-5--3-3-3-3-3-0--8~ --000-|
 |-0-0-0-0-0-0-7~ ---------------3-3-3-3-3-0--8~ --000-|
 |---------------------------------------------------------------------|
 |---------------------------------------------------------------------|
 |----------------10-9-7-9-10-7--10-10-10-9-9-9-5-5-5-12-12-12---------|
 |-------------7~ -x-x-x-x--x-x---8--8--8-7-7-7-5-5-5-10-10-10-8-8-8-7-|
 |-0-0-0-0-0-0-7~ -8-7-5-7--8-5---8--8--8-7-7-7-5-5-5-10-10-10-8-8-8-7-|
 |-0-0-0-0-0-0-7~ ----------------8--8--8-7-7-7-5-5-5-10-10-10-8-8-8-7-|

Second Verse:
 
 |-------------------------------------------------|
 |-------------------------------------------------|
 |-------------------------------------------------|
 |--0-10h12------12----0-10h12-0-10h12-12h13p12-10-| play 3x
 |-------------------------------------------------|
 |----------0h10----12-----------------------------|

PM.................................... ...
 
 |------------------------------------|
 |------------------------------------|
 |------7---10---10/-----5-5------7-7-|
 |--------8----8---------3-3------5-5-|
 |----8--------------3-3------5-5-----|
 |--8----------------3-3------5-5-----|
 |-------------------------------------------------|
 |-------------------------------------------------|
 |-------------------------------------------------|
 |--0-10h12------12----0-10h12-0-10h12-12h13p12-10-| play 3x
 |-------------------------------------------------|
 |----------0h10----12-----------------------------|
 |----------------------------------|
 |----------------------------------|
 |------7---10---10/-----5-------7--|
 |--------8----8-----------3--------|
 |----8----------------3-------5----|
 |--8----------------3-------5------|

Interlude (here he uses somekind of effect):
 
 |--------------------------------------------------|
 |--------------------------------------------------|
 |-----------12-12-12----------12-12-12-------------|
 |--------------------------------------------15----|
 |--13-13-13----------13-13-13----------13-13----13-|
 |--------------------------------------------------|
 |--------------------------------------------------|
 |--------------------------------------------------|
 |-----------10-10-10----------10-10-10-------------|
 |--------------------------------------------12----|
 |--12-12-12----------12-12-12----------12-12----12-|
 |--------------------------------------------------|
 |--------------------------------------------------|
 |--------------------------------------------------|
 |-----------15-15-15-14-14-14-12-12-12-14-14-14-14-|
 |--12-12-12----------------------------------------|
 |--------------------------------------------------|
 |--------------------------------------------------|
 |--------------------------------------------------|
 |--------------------------------------------------|
 |-----------15-15-15-14-14-14-12-12-12-14-14-14-14-|
 |--12-12-12----------------------------------------|
 |--------------------------------------------------|
 |--------------------------------------------------|

Outro:
 
 |-------------------|
 |-------------------|
 |-------------------|
 |-------------------|
 |-3h5-5-5-5-5-5-5-5-| play 5x
 |-0---0-0-0-0-0-0-0-|
 |----------------------------------|
 |----------------------------------|
 |------7---10---10/-----5-------7--|
 |--------8----8-----------3--------|
 |----8----------------3-------5----|
 |--8----------------3-------5------|

and thats it!! please rate!
- Joey

Important: The song above is NOT stored on the Chordie server. The original song is hosted at www.xguitar.com. Chordie works as a search engine and provides on-the-fly formatting. Chordie does not index songs against artists'/composers' will. To remove this song please click here.

Text color:
Chord color:
Chord grids: 
Font size:    
Page size: 

A D E
Rate #2 of 6 versions

Login - add to songbook

SHARE PAGE  



You need to log in to post comments