Guitar Tabs, Chords and Lyrics
Major upgrade!! After one year development the new version of Chordie is now online! Please give feedback.


Unintended   Muse

 
 -------------------------------------0------------------------2---------------
 -----0-------------2-1-0---------0------------2-1-0-------0-----0--------0----
 -----1---1-------1-------2---1-2---1--------1-------2-------2-----2--------2--
 ---2---2-------2-------------2-2----------2-------------1----------1---1------
 -----------0-2------------------------0-2-------------2--------------2--------
 -0----------------------------------------------------------------------------

 


 You could be my unintended, Choice to live my life extended,


 


 

 
 -2----------------0---------------0----------------2---------------3----------
 ---0----------0-----0---------1-----1----------3-----3---------3-----3--------
 -----2----------1-----1---------2-----2------2---2-----2-----0---0-----0------
 -------1----2-----------2---2-----------2--0-------------0---------------0----
 --------------------------0---------------------------------------------------
 ----------0------------------------------------------------3------------------

 


 You could be the one I'll always love.


 


 

 
 --------0----------------2---------------0---------------0---------------------
 ----1-----1----------0-----0---------0-----0---------0-----0-------------------
 ------0-----0----------2-----2---------1-----1---------1-----1-----------------
 --2-----------2----1-----------1---2-----------2---2-----------2---------------
 3----------------2-------------------------------------------------------------
 ---------------------------------0---------------0-----------------------------

 


 


 You could be the one who listens,To my deepest inquisitions,


 


 

 
 --------0---------------0----------------2---------------3---------------------
 ----0-----0---------1-----1----------3-----3---------3-----3-------------------
 ------1-----1---------2-----2------2---2-----2-----0---0-----0-----------------
 --2-----------2---2-----------2--0-------------0---------------0---------------
 ----------------0--------------------------------------------------------------
 0------------------------------------------------3-----------------------------

 


 


 You could be the one I'll always love.


 


 

 
 --------0----------------2---------------0---------------0---------------------
 ----1-----1----------0-----0---------0-----0---------0-----0-------------------
 ------0-----0----------2-----2---------1-----1---------1-----1-----------------
 --2-----------2----1-----------1---2-----------2---2-----------2---------------
 3----------------2-------------------------------------------------------------
 ---------------------------------0---------------0-----------------------------

 


 


 I'll be there as soon as I can, But I'm busy mending broken,


 


 

 
 --------0---------------0----------------2---------------3---------------------
 ----0-----0---------1-----1----------3-----3---------3-----3-------------------
 ------1-----1---------2-----2------2---2-----2-----0---0-----0-----------------
 --2-----------2---2-----------2--0-------------0---------------0---------------
 ----------------0--------------------------------------------------------------
 0------------------------------------------------3-----------------------------

 


 


 Pieces of the life I had before.


 


 

 
 --------0----------------2---------------0---------------0---------------------
 ----1-----1----------0-----0---------0-----0---------0-----0-------------------
 ------0-----0----------2-----2---------1-----1---------1-----1-----------------
 --2-----------2----1-----------1---2-----------2---2-----------2---------------
 3----------------2-------------------------------------------------------------
 ---------------------------------0---------------0-----------------------------

 


 


 First there was the one who challenged,All my dreams and all my balance,


 


 

 
 --------0---------------0----------------2---------------3---------------------
 ----0-----0---------1-----1----------3-----3---------3-----3-------------------
 ------1-----1---------2-----2------2---2-----2-----0---0-----0-----------------
 --2-----------2---2-----------2--0-------------0---------------0---------------
 ----------------0--------------------------------------------------------------
 0------------------------------------------------3-----------------------------

 


 


 She could never be as good as you.


 


 

 
 --------0----------------2---------------0---------------0---------------------
 ----1-----1----------0-----0---------0-----0---------0-----0-------------------
 ------0-----0----------2-----2---------1-----1---------1-----1-----------------
 --2-----------2----1-----------1---2-----------2---2-----------2---------------
 3----------------2-------------------------------------------------------------
 ---------------------------------0---------------0-----------------------------

 


 


 You could be my unintended, Choice to live my life extended,


 


 

 
 --------0---------------0----------------2---------------3---------------------
 ----0-----0---------1-----1----------3-----3---------3-----3-------------------
 ------1-----1---------2-----2------2---2-----2-----0---0-----0-----------------
 --2-----------2---2-----------2--0-------------0---------------0---------------
 ----------------0--------------------------------------------------------------
 0------------------------------------------------3-----------------------------

 


 


 You should be the one I'll always love.


 


 

 
 --------0----------------2---------------0-------
 ----1-----1----------0-----0---------0-----0-----
 ------0-----0----------2-----2---------1-----1---
 --2-----------2----1-----------1---2-----------2-
 3----------------2-------------------------------
 ---------------------------------0---------------
 -3-3-3-3--2-2-2-2-------------------------------------------------------------
 -3-3-3-3--0-0-0-0-------------------------------------------------------------
 -0-0-0-0--2-2-2-2-------------------------------------------------------------
 -0-0-0-0--1-1-1-1-------------------------------------------------------------
 -2-2-2-2--2-2-2-2-------------------------------------------------------------
 -3-3-3-3----------------------------------------------------------------------

 


 I'll be there as soon as I can, But I'm busy mending broken,


 


 

 
 --------0---------------0----------------2---------------3---------------------
 ----0-----0---------1-----1----------3-----3---------3-----3-------------------
 ------1-----1---------2-----2------2---2-----2-----0---0-----0-----------------
 --2-----------2---2-----------2--0-------------0---------------0---------------
 ----------------0--------------------------------------------------------------
 0------------------------------------------------3-----------------------------

 


 


 Pieces of the life I had before.


 


 

 
 --------0----------------2---------------0---------------0---------------------
 ----1-----1----------0-----0---------0-----0---------0-----0-------------------
 ------0-----0----------2-----2---------1-----1---------1-----1-----------------
 --2-----------2----1-----------1---2-----------2---2-----------2---------------
 3----------------2-------------------------------------------------------------
 ---------------------------------0---------------0----------------------------- 

 


 


 I'll be there as soon as I can, But I'm busy mending broken,


 


 

 
 --------0---------------0----------------2---------------3---------------------
 ----0-----0---------1-----1----------3-----3---------3-----3-------------------
 ------1-----1---------2-----2------2---2-----2-----0---0-----0-----------------
 --2-----------2---2-----------2--0-------------0---------------0---------------
 ----------------0--------------------------------------------------------------
 0------------------------------------------------3-----------------------------

 


 


 Pieces of the life I had before. Before you........


 


 

 
 --------0----------------2---------------0---------------0---------------------
 ----1-----1----------0-----0---------0-----0---------0-----0-------------------
 ------0-----0----------2-----2---------1-----1---------1-----1-----------------
 --2-----------2----1-----------1---2-----------2---2-----------2---------------
 3----------------2-------------------------------------------------------------
 ---------------------------------0---------------0----------------------------- 

 


 


 you.................


 


 

 
 ---------0---------------0---------------0---------------0---------------0----
 -----1-----1---------1-----1---------1-----1---------1-----1---------0-----0--
 -------2-----2---------2-----2---------2-----2---------2-----2---------1------
 ---2-----------2---2-----------2---2-----------2---2-----------0---2----------
 -0----------------------------------------------------------------------------
 -----------------3---------------2---------------1---------------0------------
 -------------0-------------------0---------------------------------------------
 ---------0-----0-------------0-----0-------------------------------------------
 -1---------1-----1-------------1------1----------------------------------------
 ---2---2-----------2-------2------------2--------------------------------------
 -------------------------------------------------------------------------------
 -----0---------------0---0----------------0------------------------------------

 


 


 


 Muse - Unintended (Transcribed By Dan Lea)


 


 Nylon Guitar:


 


 [1] [2] [3] [4] [1] [2] [3] [4] [1] [2] [3] [4] [1] [2] [3] [4] 


 


 

 
 E-|----0-----------|----0-----------|--------2-------|--------2-------|
 B-|----0-------210-|--0-0-------210-|----0-----0-----|----0-----0-----|
 G-|----1--1---1---2|01---------1---2|------2-----2--2|------2-----2---|
 D-|--2---2---2-----|---2------2-----|--1-----------1-|--1-----------1-|
 A-|--------02------|--------02------|2---------------|2---------------|
 E-|0---------------|0---------------|----------------|----------------|
 E-|--------0-------|--------0-------|--------2-------|--------3-------|
 B-|----0-----0-----|----1-----1-----|----3-----3-----|----3-----3-----|
 G-|------1-----1---|------2-----2---|--2---2-----2---|------0-----0---|
 D-|--2-----------2-|--2-----------2-|0-------------0-|--0-----------0-|
 A-|----------------|0---------------|----------------|----------------|
 E-|0---------------|----------------|----------------|3---------------|
 E-|--------0-------|--------2-------|--------0-------|--------0-------|
 B-|----1-----1-----|----0-----0-----|----0-----0-----|----0-----0-----|
 G-|------0-----0--0|------2-----2--2|------1-----1---|------1-----1---|
 D-|--2-----------2-|--1-----------1-|--2-----------2-|--2-----------2-|
 A-|3---------------|2---------------|----------------|----------------|
 E-|----------------|----------------|0---------------|0---------------|
 E-|--------0-------|--------0-------|--------2-------|--------3-------|
 B-|----0-----0-----|----1-----1-----|----3-----3-----|----3-----3-----|
 G-|------1-----1---|------2-----2---|--2---2-----2---|------0-----0---|
 D-|--2-----------2-|--2-----------2-|0-------------0-|--0-----------0-|
 A-|----------------|0---------------|----------------|----------------|
 E-|0---------------|----------------|----------------|3---------------|
 E-|--------0-------|--------2-------|--------0-------|--------0-------|
 B-|----1-----1-----|----0-----0-----|----0-----0-----|----0-----0-----|
 G-|------0-----0--0|------2-----2--2|---1--1-----1--1|------1-----1---|
 D-|--2-----------2-|--1-----------1-|--2-----------2-|--2-----------2-|
 A-|3---------------|2---------------|----------------|----------------|
 E-|----------------|----------------|0---------------|0---------------|

 


 


 |-->


 


 

 
 E-|--------0-------|--------0-------|--------2-------|--------3-------|
 B-|----0-----0-----|----1-----1-----|----3-----3-----|----3-----3-----|
 G-|------1-----1---|------2-----2---|--2---2-----2---|------0-----0---|
 D-|--2-----------2-|--2-----------2-|0-------------0-|--0-----------0-|
 A-|----------------|0---------------|----------------|----------------|
 E-|0---------------|----------------|----------------|3---------------|
 E-|--------0-------|--------2-------|--------0-------|--------0-------|
 B-|----1-----1-----|----0-----0-----|----0-----0-----|----0-----0-----|
 G-|------0-----0---|------2-----2---|------1-----1---|------1-----1---|
 D-|--2-----------2-|--1-----------1-|--2-----------2-|--2-----------2-|
 A-|3---------------|2---------------|----------------|----------------|
 E-|----------------|----------------|0---------------|0---------------|

 


 


 Repeat <--|


 


 

 
 E-|--------0-------|--------0-------|--------2-------|--------3-------|
 B-|----0-----0-----|----1-----1-----|----3-----3-----|----3-----3-----|
 G-|------1-----1---|------2-----2---|--2---2-----2---|------0-----0---|
 D-|--2-----------2-|--2-----------2-|0-------------0-|--0-----------0-|
 A-|----------------|0---------------|----------------|----------------|
 E-|0---------------|----------------|----------------|3---------------|
 E-|--------0-------|--------2-------|--------0-------|------------2---|
 B-|----1-----1-----|----0-----0-----|----0-----0-----|----0-----0--0--|
 G-|------0-----0---|------2-----2---|------1-----1---|------0----2--2-|
 D-|--2-----------2-|--1-----------1-|--2-----------2-|--2------1-----1|
 A-|3---------------|2---------------|2---------------|--------2-------|
 E-|----------------|----------------|----------------|3---------------|

 


 


 |-->


 


 

 
 E-|--------0-------|--------0-------|--------2-------|--------3-------|
 B-|----0-----0-----|----1-----1-----|----3-----3-----|----3-----3-----|
 G-|------1-----1---|------2-----2---|--2---2-----2---|------0-----0---|
 D-|--2-----------2-|--2-----------2-|0-------------0-|--0-----------0-|
 A-|----------------|0---------------|----------------|----------------|
 E-|0---------------|----------------|----------------|3---------------|
 E-|--------0-------|--------2-------|--------0-------|--------0-------|
 B-|----1-----1-----|----0-----0-----|----0-----0-----|----0-----0-----|
 G-|------0-----0---|------2-----2---|------1-----1---|------1-----1---|
 D-|--2-----------2-|--1-----------1-|--2-----------2-|--2-----------2-|
 A-|3---------------|2---------------|----------------|----------------|
 E-|----------------|----------------|0---------------|0---------------|

 


 


 Repeat <--|


 


 

 
 E-|--------0-------|--------0-------|--------0-------|--------0-------|
 B-|----1-----1-----|----1-----1-----|----1-----1-----|----0-----0-----|
 G-|------2-----2---|------2-----2---|------2-----2---|------2-----2---|
 D-|--2-----------2-|--2-----------2-|--2-----------2-|--2-----------2-|
 A-|0---------------|----------------|----------------|----------------|
 E-|----------------|3---------------|2---------------|1---------------|
 E-|--------0-------|--------0-------|--------0-------|----------------|
 B-|----0-----0-----|----0-----0-----|----------0-----|----------------|
 G-|------2-----2---|------2-----2---|----1-------1---|----------------|
 D-|--2-----------2-|--2-----------2-|--2---2-------2-|----------------|
 A-|----------------|----------------|----------------|----------------|
 E-|0---------------|0---------------|0---------------|0---------------|


Important: The song above is NOT stored on the Chordie server. The original song is hosted at www.xguitar.com. Chordie works as a search engine and provides on-the-fly formatting. Chordie does not index songs against artists'/composers' will. To remove this song please click here.

This song is displayed as text-only. Transposing and tuning is only available for chordpro-songs.
Rate #17 of 19 versions

Jango Player

Login - add to songbook

SHARE PAGE  




You need to log in to post comments