Guitar Tabs, Chords and Lyrics
Major upgrade!! After one year development the new version of Chordie is now online! Please give feedback.


The Cry of Mankind   My Dying Bride

 
 ||--t7-p0-h3------------||
 ||-----------t7-p0-h3---||
 ||.--------------------.||
 ||.--------------------.||
 ||----------------------||
 ||----------------------||

 


 || 1 2 3 4 5 6 ||


 


 Riff I


 

 
 ||----------------|---------------|---------------|----------------||
 ||----------------|---------------|---------------|----------------||
 ||.---------------|---------------|---------------|---------------.||
 ||.---------------|---------------|---------------|---------------.||
 ||---2------------|-(2)----2--/7--|--3------------|--2-------------||
 ||---0------------|-(0)-----------|---------------|----------------||

 


 || 1 2 3 4 5 6 | 1 2 3 4 5 6 | 1 2 3 4 5 6 | 1 2 3 4 5 6 ||


 


 Riff II


 

 
 ||-----------------------|------|----------------|----------||
 ||-----------------------|------|----------------|----------||
 ||-----------------------|------|----------------|----------||
 ||----9-5-10v--10h12p10--|--9v--|----9-5-10v--9--|----------||
 ||--7--------------------|------|--7-------------|--9v-10v--||
 ||-----------------------|------|----------------|----------||

 


 || 1 2 3 4 5 6 e + | W | 1 2 3 4 5 6 | Q. Q. ||


 


 Riff III


 

 
 ||---------------|---------------|---------------|---------------|
 ||---------------|---------------|---------------|---------------|
 ||---------------|---------------|---------------|---------------|
 ||-------/-9-----|-\\-5-----------|-------/-9-----|/-12-----------|
 ||--2----/7------|-\\3------------|--2----/7------|/10------------|
 ||--0------------|---------------|--0------------|---------------|

 


 || 1 2 3 4 5 6 | 1 2 3 4 5 6 | 1 2 3 4 5 6 | 1 2 3 4 5 6 |


 


 

 
 |---------------|---------------|---------------|---------------||
 |---------------|---------------|---------------|---------------||
 |---------------|---------------|---------------|---------------||
 |-------/-9-----|-\\-5-----------|--------4------|--2------------||
 |--2----/7------|-\\3---------3--|--2------------|---------------||
 |--0------------|---------------|---------------|---------------||

 


 | 1 2 3 4 5 6 | 1 2 3 4 5 6 | 1 2 3 4 5 6 | 1 2 3 4 5 6 ||


 


 Riff IV


 (#) play on 1st repeat, not on 2nd


 * play on 2nd repeat, not on 1st


 

 
 ||---------------|---------------|---------------|---------------|
 ||---------------|---------------|---------------|---------------|
 ||---------------|---------------|---------------|---------------|
 ||-*9------------|---------------|--------5------|--4---------2--|
 ||-[2]-----------|-(2)----2--/7--|--3------------|---------------|
 ||-[0]-----------|-(0)-----------|---------------|---------------|

 


 || 1 2 3 4 5 6 | 1 2 3 4 5 6 | 1 2 3 4 5 6 | 1 2 3 4 5 6 |


 


 

 
 |---------------|---------------|---------------|---------------||
 |---------------|---------------|---------------|---------------||
 |---------------|---------------|---------------|---------------||
 |---------------|--------2--/7--|--3------------|---------------||
 |---------------|---------------|---------------|---------------||

 


 | 1 2 3 4 5 6 | 1 2 3 4 5 6 | 1 2 3 4 5 6 | 1 2 3 4 5 6 ||


 


 Solo


 

 
 ||---------------|---------------|---------------|-----------------|
 ||---------------|---------------|---------------|-----------------|
 ||---------------|---------------|---------------|-----------------|
 ||--2----/9------|-\\5-----4---2--|--2---/10------|-\\5-----7-5-4h5--|
 ||---------------|---------------|---------------|-----------------|
 ||---------------|---------------|---------------|-----------------|

 


 || 1 2 3 4 5 6 | 1 2 3 4 5 6 | 1 2 3 4 5 6 | 1 2 3 4 5 6 + |


 


 

 
 |---------------|---------------|---------------|---------------|
 |---------------|---------------|---------------|---------------|
 |---------------|---------------|---------------|---------------|
 |--2----/9------|-\\5-----4---2--|--2---/10------|/12------------|
 |---------------|---------------|---------------|------------7--|
 |---------------|---------------|---------------|---------------|

 


 | 1 2 3 4 5 6 | 1 2 3 4 5 6 | 1 2 3 4 5 6 | 1 2 3 4 5 6 |


 


 

 
 |---------------|--------------------|----------------|--------------------|
 |---------------|--------------------|----------------|--------------------|
 |---------------|-----9-11-12-11-12--|-12------14-12--|-11-12-14-12-11-12--|
 |---------------|--------------------|----------------|--------------------|
 |7--------------|-(7)-7--9-10--9-10--|-10------12-10--|--9-10-12-10--9-10--|
 |---------------|--------------------|----------------|--------------------|

 


 | 1 2 3 4 5 6 | 1 2 3 4 5 6 | 1 2 3 4 5 6 | 1 2 3 4 5 6 |


 


 

 
 |---------------|--------------------|----------------|----------------||
 |---------------|--------------------|----------------|----------------||
 |9--------------|-(9)-9--11-12-11-9--|--9-------11-9--|--7-9-11-9-7-9--||
 |---------------|--------------------|----------------|----------------||
 |7--------------|-(7)-7--9--10-9--7--|--7-------9--7--|--5-7--9-7-5-7--||
 |---------------|--------------------|----------------|----------------||

 


 | 1 2 3 4 5 6 | 1 2 3 4 5 6 | 1 2 3 4 5 6 | 1 2 3 4 5 6 ||


 


 

 
 Order---------\\

 


 | 4 bar rest |


 | Riff I x2 |


 | Riff II x2 |


 | Riff III x2 |


 | Riff IV x2 |


 | Solo x1 |


 | Riff II x2 |


 | Riff III x2 |


 | Riff I x2 |


 | Riff IV x2 |


 | Fade |


 

 
 \\-------------/


Important: The song above is NOT stored on the Chordie server. The original song is hosted at www.xguitar.com. Chordie works as a search engine and provides on-the-fly formatting. Chordie does not index songs against artists'/composers' will. To remove this song please click here.

This song is displayed as text-only. Transposing and tuning is only available for chordpro-songs.
Rate #1 of 3 versions

Login - add to songbook

SHARE PAGE  




You need to log in to post comments