Guitar Tabs, Chords and Lyrics
Major upgrade!! After one year development the new version of Chordie is now online! Please give feedback.


For You   My Dying Bride

 
 D#[-------------------------------------------|-------------------------------------------]
 A#[-------------------------------------------|-------------------------------------------]
 F#[-------------------------------------------|-------------------------------------------]
 C#[-------------------------------------------|-------------------------------------------]
 G#[-----5h8-----7p5-----3h5-----3p2-----0h2---|-----5h8-----7p5-----3h5-----3p2-----0h2---]
 C#[--0-------0-------0-------0-------0--------|--0-------0-------0-------0-------0--------]

 


 


 (Guitar 2) 4x


 

 
 D#|-------------------------------------------|-------------------------------------------]
 A#|-------------------------------------------|-------------------------------------------]
 F#|-------------------------------------------|-------------------------------------------]
 C#|--7------------------------------------2---|--3----------------------------------------]
 G#|--5------------------------------------0---|--1-----------------------------------/8---]
 C#|-------------------------------------------|-------------------------------------------]

 


 


 VERSE


 

 
 Rhy Fig. 1-----------------------------------------|

 


 (Guitar 2)


 

 
 D#|------------------------------------------------------|
 A#|------------------------------------------------------|
 F#|------7---7--------7---7--------7---7--------7---7----|
 C#|----7---7---7----7---7---7----7---7---7----7---7---7--|
 G#|--5------------5------------5------------5------------|
 C#|------------------------------------------------------|
 Rhy Fig. 2-------------------------------------------|

 


 (C#) (G#) (B) (A) 8x


 

 
 D#[------------------------------------------------------]
 A#[------------------------------------------------------]
 F#[------7---7--------2---2--------5---5--------3---3----]
 C#[----7---7---7----2---2---2----5---5---5----3---3---3--]
 G#[--5------------0------------3------------1------------]
 C#[------------------------------------------------------]

 


 Note: Violin plays notes in () during verses


 


 (Guitar 1) Played w/ Rhy Fig. 2


 C# G# B A C# G# B A C# G# B A C# B# B A 2x


 

 
 D#|----------------|------------------------------[---------------------|------------------]
 A#|----------------|------------------------------[---------------------|------------------]
 F#|----------------|------------------------------[---------------------|------------------]
 C#|--0-------------|--5h7-7--7p5-5--5\\3-3--3\\2-2--[--0--2--3-5-3-2-3-2--|--0--2-3p2-0------]
 G#|-----0---3---1--|------------------------------[---------------------|-------------3/5--]
 C#|----------------|------------------------------[---------------------|------------------]

 


 


 C# G# B A C# G# B A w/ Rhy Fig. 1


 

 
 D#|----------------|------------------------------|----------------------------|
 A#|----------------|------------------------------|----------------------------|
 F#|----------------|------------------------------|----------------------------|
 C#|--0-------------|--5h7-7--7p5-5--5\\3-3--3\\2-2--|--0-------------------------|
 G#|----------------|------------------------------|-------8----7----5---3h5-5--|
 C#|----------------|------------------------------|----------------------------|

 


 


 I will be here for you


 All I want is you


 When I see your face


 All the Angels are shamed


 


 


 

 
 (Guitar 1&2) Riff 1.-------------------------------------------------------------------|
 D#[---------------------][--------------------][---------------------][--------------------]
 A#[---------------------][--------------------][---------------------][--------------------]
 F#[---------------------][--------------------][---------------------][--------------------]
 C#[--0--0h2--3-2---3-2--][--------------------][--0--0h2--3-2---3-2--][--------------------]
 G#[--0--0h2--3-2---3-2--][--5----7-8-7---7-8--][--0--0h2--3-2---3-2--][--5----7-8-7---7-8--]
 C#[--0--0h2--3-2---3-2--][--0-----------------][--0--0h2--3-2---3-2--][--0-----------------]

 


 


 (Violin arr. for guitar) Played w/ Riff 1.


 

 
 D#|--------------------|-----------------|-----------------|----------------------------|
 A#|-15--13---11----10--|-----------------|-----------------|--15/17--18-17---13--13/15--|
 F#|--------------------|--7--7h9-10-9----|--9~-10--12--14--|----------------------------|
 C#|--------------------|-----------------|-----------------|----------------------------|
 G#|--------------------|-----------------|-----------------|----------------------------|
 C#|--------------------|-----------------|-----------------|----------------------------|
 D#|--------------------|-----------------|-----------------|-------------------------|
 A#|-15--13---11----10--|-----------------|-----------------|--15/17--18-17---15~~~~~-|
 F#|--------------------|--7--7h9-10-9----|--9~-10--12--14--|-------------------------|
 C#|--------------------|-----------------|-----------------|-------------------------|
 G#|--------------------|-----------------|-----------------|-------------------------|
 C#|--------------------|-----------------|-----------------|-------------------------|

 


 


 VERSE 2


 


 (Guitar 2)


 

 
 D#|------------------------------------------------------|
 A#|------------------------------------------------------|
 F#|------7---7--------7---7--------7---7--------7---7----|
 C#|----7---7---7----7---7---7----7---7---7----7---7---7--|
 G#|--5------------5------------5------------5------------|
 C#|------------------------------------------------------|

 


 


 (C#) (G#) (B) (A) 8x


 

 
 D#[------------------------------------------------------]
 A#[------------------------------------------------------]
 F#[------7---7--------2---2--------5---5--------3---3----]
 C#[----7---7---7----2---2---2----5---5---5----3---3---3--]
 G#[--5------------0------------3------------1------------]
 C#[------------------------------------------------------]

 


 


 (Guitar 1) Played w/ Rhy Fig. 2


 C# G# B A C# G# B A C# G# B A C# B# B A 2x


 

 
 D#|----------------|------------------------------[---------------------|------------------]
 A#|----------------|------------------------------[---------------------|------------------]
 F#|----------------|------------------------------[---------------------|------------------]
 C#|--0-------------|--5h7-7--7p5-5--5\\3-3--3\\2-2--[--0--2--3-5-3-2-3-2--|--0--2-3p2-0------]
 G#|-----0---3---1--|------------------------------[---------------------|-------------3/5--]
 C#|----------------|------------------------------[---------------------|------------------]

 


 


 C# G# B A C# G# B A C# G# B A C# B# B A 2x


 

 
 D#|----------------|-------------------------[---------------------|------------------]
 A#|----------------|-------------------------[---------------------|------------------]
 F#|----------------|-------------------------[---------------------|------------------]
 C#|--0-------------|--0------2-3-5-3-2--2h3--[--0--2--3-5-3-2-3-2--|--0--2-3p2-0------]
 G#|-----0---3---1--|-----0-------------------[---------------------|-------------3/5--]
 C#|----------------|-------------------------[---------------------|------------------]

 


 


 C# G# B A C# G# B A w/ Rhy Fig. 1


 

 
 D#|----------------|------------------------------|----------------------------|
 A#|----------------|------------------------------|----------------------------|
 F#|----------------|------------------------------|----------------------------|
 C#|--0-------------|--5h7-7--7p5-5--5\\3-3--3\\2-2--|--0-------------------------|
 G#|----------------|------------------------------|-------8----7----5---3h5-5--|
 C#|----------------|------------------------------|----------------------------|

 


 


 Lay with me beauty


 Feel me close to you


 Take my hand to you


 Touch me softly. Your warm skin


 


 Cover me with you


 Over me under you


 Pull me into you


 As we lay entwined


 


 CHORUS


 


 (Guitar 1) 4x


 

 
 D#[-------------------------------------------|-------------------------------------------]
 A#[-------------------------------------------|-------------------------------------------]
 F#[-------------------------------------------|-------------------------------------------]
 C#[-------------------------------------------|-------------------------------------------]
 G#[-----5h8-----7p5-----3h5-----3p2-----0h2---|-----5h8-----7p5-----3h5-----3p2-----0h2---]
 C#[--0-------0-------0-------0-------0--------|--0-------0-------0-------0-------0--------]

 


 


 (Guitar 2) 4x


 

 
 D#|-------------------------------------------|-------------------------------------------]
 A#|-------------------------------------------|-------------------------------------------]
 F#|-------------------------------------------|-------------------------------------------]
 C#|--7------------------------------------2---|--3----------------------------------------]
 G#|--5------------------------------------0---|--1-----------------------------------/8---]
 C#|-------------------------------------------|-------------------------------------------]

 


 


 All I ever wanted


 I have, I need never wish again


 You are heaven sent


 


 (Guitar 2)


 

 
 D#|------------------------------------------------------|
 A#|------------------------------------------------------|
 F#|------7---7--------7---7--------7---7--------7---7----|
 C#|----7---7---7----7---7---7----7---7---7----7---7---7--|
 G#|--5------------5------------5------------5------------|
 C#|------------------------------------------------------|

 


 


 (Guitar 1&2)


 

 
 D#[---------------------][--------------------][---------------------][--------------------]
 A#[---------------------][--------------------][---------------------][--------------------]
 F#[---------------------][--------------------][---------------------][--------------------]
 C#[--0--0h2--3-2---3-2--][--------------------][--0--0h2--3-2---3-2--][--------------------]
 G#[--0--0h2--3-2---3-2--][--5----7-8-7---7-8--][--0--0h2--3-2---3-2--][--5----7-8-7---7-8--]
 C#[--0--0h2--3-2---3-2--][--0-----------------][--0--0h2--3-2---3-2--][--0-----------------]

 


 


 (Violin arr. for guitar) Played w/ Riff 1.


 

 
 D#|--------------------|-----------------|-----------------|----------------------------|
 A#|-15--13---11----10--|-----------------|-----------------|--15/17--18-17---13--13/15--|
 F#|--------------------|--7--7h9-10-9----|--9~-10--12--14--|----------------------------|
 C#|--------------------|-----------------|-----------------|----------------------------|
 G#|--------------------|-----------------|-----------------|----------------------------|
 C#|--------------------|-----------------|-----------------|----------------------------|
 D#|--------------------|-----------------|-----------------|-------------------------|
 A#|-15--13---11----10--|-----------------|-----------------|--15/17--18-17---15~~~~~-|
 F#|--------------------|--7--7h9-10-9----|--9~-10--12--14--|-------------------------|
 C#|--------------------|-----------------|-----------------|-------------------------|
 G#|--------------------|-----------------|-----------------|-------------------------|
 C#|--------------------|-----------------|-----------------|-------------------------|

 


 


 (Guitar 2)


 

 
 D#|------------------------------------------------------|
 A#|------------------------------------------------------|
 F#|------7---7--------7---7--------7---7--------7---7----|
 C#|----7---7---7----7---7---7----7---7---7----7---7---7--|
 G#|--5------------5------------5------------5------------|
 C#|------------------------------------------------------|

 


 


 (Guitar 1&2) 2x


 

 
 D#[-------------------------------------------|-------------------------------------------]
 A#[-------------------------------------------|-------------------------------------------]
 F#[-------------------------------------------|-------------------------------------------]
 C#[-------------------------------------------|-------------------------------------------]
 G#[-----5h8-----7p5-----3h5-----3p2-----0h2---|-----5h8-----7p5-----3h5-----3p2-----0h2---]
 C#[--0-------0-------0-------0-------0--------|--0-------0-------0-------0-------0--------]

 


 


 All I ever wanted


 You are, you are heaven sent


 


 (Guitar 1) 8x


 

 
 D#[-------------------------------------------|-------------------------------------------]
 A#[-------------------------------------------|-------------------------------------------]
 F#[-------------------------------------------|-------------------------------------------]
 C#[-------------------------------------------|-------------------------------------------]
 G#[-----5h8-----7p5-----3h5-----3p2-----0h2---|-----5h8-----7p5-----3h5-----3p2-----0h2---]
 C#[--0-------0-------0-------0-------0--------|--0-------0-------0-------0-------0--------]

 


 


 (Guitar 2) 8x


 

 
 D#|-------------------------------------------|-------------------------------------------]
 A#|-------------------------------------------|-------------------------------------------]
 F#|-------------------------------------------|-------------------------------------------]
 C#|--7------------------------------------2---|--3----------------------------------------]
 G#|--5------------------------------------0---|--1-----------------------------------/8---]
 C#|-------------------------------------------|-------------------------------------------]
 (Guitar 2) Gradually reduce tempo-----------|
 D#|---------------------------------------------------------------||
 A#|---------------------------------------------------------------||
 F#|------7---7--------7---7--------7---7--------7---7--------7----||
 C#|----7---7---7----7---7---7----7---7---7----7---7---7----7------||
 G#|--5------------5------------5------------5------------5--------||
 C#|---------------------------------------------------------------||


Important: The song above is NOT stored on the Chordie server. The original song is hosted at www.xguitar.com. Chordie works as a search engine and provides on-the-fly formatting. Chordie does not index songs against artists'/composers' will. To remove this song please click here.

This song is displayed as text-only. Transposing and tuning is only available for chordpro-songs.
Rate #1 of 2 versions

Jango Player

Login - add to songbook

SHARE PAGE  




You need to log in to post comments