Guitar Tabs, Chords and Lyrics
Major upgrade!! After one year development the new version of Chordie is now online! Please give feedback.


Always: Your Way  My Vitriol

X===============================PLEASE NOTE==============================X
X This tab is all my own and represents my interpretation of the song. X
X You may only use this tab for private study, scholarship, or research. X
X Do not change, deface, mutilate, or in any other way alter this tab. X
X You must email me first if you want to use this tab on your site. X
X========================================================================X
My Vitriol- Always Your Way
Tabbed by WWW.GEOCITIES.COM/MVTABS
Capo on 2nd fret
Intro
[D]D [Bm]D B[D]m [Bm]A Bm A X2
Lead 4x
 
 E-----------12--12----------12--12----------12--12----------12--12-----|
 B---10--10----------10--10----------10--10----------10--10-------------|
 G---11--11----------11--11----------11--11----------11--11------------*|
 D---------------------------------------------------------------------*|
 A----------------------------------------------------------------------|
 E----------------------------------------------------------------------|
 E-----------------------------------------------------------------------
 B-----------5-5-5h7------------------5-5-5h7----------------------------
 G---6/7--7----------6--------6/7--7----------6--6---------7--7--6--6----
 D---0------------------------0------------------------------------------
 A---------------------------------------------------------5--5--4--4----
 E-----------------------------------------------------------------------

2x
 
 E-------------------|---------------------------------------------------
 B-------------------|---------------------------------------------------
 G------7--7--6--6--*|---------------------------------------------------
 D------------------*|---------------------------------------------------
 A------5--5--4--4---|---------------------------------------------------
 E-------------------|---------------------------------------------------

Verse
[D] [Bm] [G] [Em] [G] [D]  
[D] [Bm] [G] [Em] [G] [D]  
Lead
 
 E---0--5--2--0--5--2------------------0--5--2--0--5--2------------------
 B-----------------------------------------------------------------------
 G---------------------12--12--11--11--------------------12--12--11------
 D-----------------------------------------------------------------------
 A-----------------------------------------------------------------------
 E-----------------------------------------------------------------------
 E------------------|
 B------------------|
 G---11-----11--11--|
 D------------------|
 A------------------|
 E------------------|

Chorus
[Em]Em [G]G [D]D [A]Fill
[Em]Em [G]G [D]D [A]Fill
Fill
 
 |-----------|
 |-----------|

|--7--7/9/11|
 
 |-----------|

|--5--5/7/9-|
 
 |-----------|

*Repeat Verse*
Interlude
[D]D [Bm]D B[D]m [Bm]A Bm A X2
Lead 4x
 
 E-----------12--12----------12--12----------12--12----------12--12-----|
 B---10--10----------10--10----------10--10----------10--10-------------|
 G---11--11----------11--11----------11--11----------11--11------------*|
 D---------------------------------------------------------------------*|
 A----------------------------------------------------------------------|
 E----------------------------------------------------------------------|
 E-----------------------------------------------------------------------
 B-----------5-5-5h7------------------5-5-5h7----------------------------
 G---6/7--7----------6--------6/7--7----------6--6---------7--7--6--6----
 D---0------------------------0------------------------------------------
 A---------------------------------------------------------5--5--4--4----
 E-----------------------------------------------------------------------

2x
 
 E-------------------|---------------------------------------------------
 B-------------------|---------------------------------------------------
 G------7--7--6--6--*|---------------------------------------------------
 D------------------*|---------------------------------------------------
 A------5--5--4--4---|---------------------------------------------------
 E-------------------|---------------------------------------------------

*Repeat Chorus*
Middle Eight
Em G D D X4
Lead
 
 E----------------------------------9b10r9-------------------------------
 B---8--7\3--8--7-----8--7\3--8--7---------------8--7\3--8--7-----8------
 G-----------------------------------------------------------------------
 D-----------------------------------------------------------------------
 A-----------------------------------------------------------------------
 E-----------------------------------------------------------------------
 E--------11--|----------------------------------------------------------
 B---7\3------|----------------------------------------------------------
 G------------|----------------------------------------------------------
 D------------|----------------------------------------------------------
 A------------|----------------------------------------------------------
 E------------|----------------------------------------------------------

Outro
[Em]Em [G]G [D]D [A]Fill
[Em] [G] [D] [A]  
[Em] [G] [D]  
Lead
 
 E-----------------------------------------------------------------------
 B---8--8--8--7--7--7--7--8--8--8--7--7--7--7--8--8--8--7--7--7--7-------
 G-----------------------------------------------------------------------
 D-----------------------------------------------------------------------
 A-----------------------------------------------------------------------
 E-----------------------------------------------------------------------
 E-----------------------------------------------------------------------
 B---10--10--10--8--8--7--7--8--8--7--7-----10--10--10--10--8--8--7------
 G-----------------------------------------------------------------------
 D-----------------------------------------------------------------------
 A-----------------------------------------------------------------------
 E-----------------------------------------------------------------------
 E---------------------------|-------------------------------------------
 B---7--8--7--8--7--7--7--7--|-------------------------------------------
 G---------------------------|-------------------------------------------
 D---------------------------|-------------------------------------------
 A---------------------------|-------------------------------------------
 E---------------------------|-------------------------------------------


Important: The song above is NOT stored on the Chordie server. The original song is hosted at www.xguitar.com. Chordie works as a search engine and provides on-the-fly formatting. Chordie does not index songs against artists'/composers' will. To remove this song please click here.

Text color:
Chord color:
Chord grids: 
Font size:    
Page size: 

A Bm D Em G
Rate #1 of 1 versions

Login - add to songbook

SHARE PAGE  




You need to log in to post comments