Guitar Tabs, Chords and Lyrics
Major upgrade!! After one year development the new version of Chordie is now online! Please give feedback.


Leave Me Alone  New Order

Date: Fri, 3 Nov 1995 11:17:00 +0000
Subject: Leave Me Alone New Order
Leave Me Alone
New Order
Power, Corruption and Lies
Dropped D tuning - DADGBE
Intro
q e e e e e e e e e e e e e e q e e e e e e e e e e e e e e
 
 |----------------|-----------------|----------------|------------------|
 |----------------|-----------------|----------------|------------------|
 |----------------|-----------------|----------------|------------------| x2
 |----------------|-----------------|----------------|------------------|
 |-3--3-3-3-3-3-3-|-3-3-3-3-3-5-5-5-|-2--2-2-2-2-2-2-|-2-2-2-2-2-2-2-2--|
 |----------------|-----------------|----------------|------------------|

q e e e e e e e e e e e e e e q e q e q e e e q. q
 
 |----------------|-----------------|----------------|----------------|
 |----------------|-----------------|----------------|----------------|
 |----------------|-----------------|----------------|----------------|
 |----------------|-----------------|----------------|----------------|
 |-3--3-3-3-3-3-3-|-3-3-3-3-3-5-5-5-|----------------|----------------|
 |----------------|-----------------|-5--5-5--5-5----|-5-5-5-5---0----|

Bass from Intro cont.
[A] q e q e e q e e q e e e q e q e e q e e q e e e
 
 |-7--7-----------------------------|-7--7------------------10---------|
 |------10--10-10-8--8-8-10--8-10-8-|------10--10-10-8--8-8-----8-10-8-|
 |----------------------------------|----------------------------------|
 |----------------------------------|----------------------------------|
 |----------------------------------|----------------------------------|
 |----------------------------------|----------------------------------|

[B] q e q e e q e e q e e e q e q e e q e e q e e e
 
 |-7--7-----------------------------|-7--7-----------------------------|
 |------10--10-10-8--8-8-7---8-7-8--|------10--10-10-8--8-8-7---8-7-8--|
 |----------------------------------|----------------------------------|
 |----------------------------------|----------------------------------|
 |----------------------------------|----------------------------------|
 |----------------------------------|----------------------------------|

[C] e e e q. q. q. q q e e e q. q. q. q q
 
 |----------------------------------|----------------------------------|
 |-8-(8)(8)--7---8---7---8--7-------|-8-(8)(8)--7---8---7---8-/10------|
 |----------------------------------|----------------------------------|
 |----------------------------------|----------------------------------|
 |----------------------------------|----------------------------------|
 |----------------------------------|----------------------------------|

[D] e e e q. q e q. q q e e e q. q e q. q q
 
 |-7-7-7-----7---7-----7------------|-10-10-10-----10--10-----10-------|
 |--------8--------8------8---------|-----------8---------8-------8----|
 |----------------------------------|----------------------------------|
 |----------------------------------|----------------------------------|
 |----------------------------------|----------------------------------|
 |----------------------------------|----------------------------------|

[E] q. q. q. q. q q q. q. q. q. q q
 
 |----------------------------------|----------------------------------|
 |-8----7----8----7---8--7----------|-8----7----8----7----8---7--------|
 |----------------------------------|----------------------------------|
 |----------------------------------|----------------------------------|
 |----------------------------------|----------------------------------|
 |----------------------------------|----------------------------------|

[F] w+h. q w+h. q
 
 |----------------------------------|----------------------------------|
 |-8--------------------------------|----------------------------------|
 |----------------------------------|----------------------------------|
 |----------------------------------|----------------------------------|
 |----------------------------------|----------------------------------|
 |--------------------------------0-|-5------------------------------0-|

[G] w+h. q w+h. q
 
 |----------------------------------|----------------------------------|
 |----------------------------------|----------------------------------|
 |----------------------------------|----------------------------------|
 |----------------------------------|----------------------------------|
 |----------------------------------|----------------------------------|
 |-5------------------------------0-|-5------------------------------0-|

end
 
 |----------------------------------|
 |----------------------------------|
 |----------------------------------|
 |----------------------------------|
 |----------------------------------|
 |-5--------------------------------|

w = whole note
h = half note
q = quarter
e = eighth
. = dotted
it goes roughly
intro ABCCABCCBBCCBBCCBBCCBBDDDD / ABBBABBEEEFG end
above played sim. with C
B.Jansen

Important: The song above is NOT stored on the Chordie server. The original song is hosted at www.xguitar.com. Chordie works as a search engine and provides on-the-fly formatting. Chordie does not index songs against artists'/composers' will. To remove this song please click here.

Text color:
Chord color:
Chord grids: 
Font size:    
Page size: 

A B C D E F G
Rate #5 of 6 versions

Login - add to songbook

SHARE PAGE  




You need to log in to post comments