Guitar Tabs, Chords and Lyrics
Server problems seems to be fixed. Chordie has been experiencing problems with songs disappearing. These issues now seems to be fixed, but still verifying the fix. If you find anything strange, please email admin@chordie.com.


Lounge Act  Nirvana

By Kurt Cobain
Tune normally
Voicings.-
B(x244xx)
G(355xxx)
C(x355xx)
A5(x022xx)
E(022xxx)
D5(x0023X)
Intro.-
Rhy. fig 1
[B] [G] [C5]  
 
 |-----------------------------------------------------------------|
 |o---------------------------------------------------------------o|
 |-----4----X---4--4----4------------------------5----5---5----0---|
 |-----4----X---4--4----4--0---5-----5-----0-----5----5---5----0---| X2
 |o----2----X---2--2----2--0---5-----5-----0-----3----3---3----0--o|
 |-------------------------0---3-----3-----0-----------------------|

w/rhy. fig 1 (clean)
Thruth, covered in security,
I can't let you smoother me.
I'd like to but it wouldn't work,
trading off and taking turns. (only one time the C5 chord)
Chorus (w/dist)
[A5]And I've got[E] this frie[A]nd,
you see[D5] who [G]makes me feel[E]
and I [A]wanted more[D5] than [G]I could steal.[E]
I'll arr[A]est myself,[D5] I'll w[G]ear a shield.[E]
I'll go [A]out my way[D5] to pro[G]ve I
still smell her
on you
 
 |-------------------------------------------|----------------------------|
 |o-2---------------------------------------o|----------------------------|
 |--2----------------------------------------|----------------------------|
 |--2-------------------0-------5----5-------|----0-----------------------|
 |o-0---------------3-----------5----5------o|----0-----------------------|
 |------------4-----------------3----3-------|----0-----------------------|

X2
w/rhy. fig. 1 (clean)
Don't tell me what I want to hear.
Afraidof never knowing fear,
experience anything you need.
I'll keep fighting jelousy.
Until it's fucking gone
Repeat chorus
PLay rhy. fig 1 w/dist X2
Repeat verse 1, but with distortion.
Chorus (w/dist)
[A5]And I've got[E] this frie[A]nd,
you see[D5] who [G]makes me feel[E]
and I [A]wanted more[D5] than [G]I could steal.[E]
I'll arr[A]est myself,[D5] I'll w[G]ear a shield.[E]
I'll go [A]out my way[D5] to [G]make you a deal.[E]
We've made[A] a pact[D5] to [G]learn from who - [E]
ever we[A] want without[D5] new [G]rules.[E]
We'll save w[A]hat's lost and [D5]what [G]we grew.[E]
They'll go [A]out their way[D5] to [G]prove they
Dive w/bar
 
 |-------------------------------------------|----------------------------|
 |o-2---------------------------------------o|----2-----------------------|
 |--2----------------------------------------|----2-----------------------|
 |--2-------------------0-------5----5-------|----2-----------------------|
 |o-0---------------3-----------5----5------o|----0-----------------------|
 |------------4-----------------3----3-------|----------------------------|

X4

Important: The song above is NOT stored on the Chordie server. The original song is hosted at www.xguitar.com. Chordie works as a search engine and provides on-the-fly formatting. Chordie does not index songs against artists'/composers' will. To remove this song please click here.

Text color:
Chord color:
Chord grids: 
Font size:    
Page size: 

A A5 B C5 D5 E G
Rate #1 of 12 versions

Jango Player

Login - add to songbook

SHARE PAGE  



You need to log in to post comments