Guitar Tabs, Chords and Lyrics
Major upgrade!! After one year development the new version of Chordie is now online! Please give feedback.


Making Out  No Doubt

No Doubt - Making Out
Submitted By: Anjel
EMail: chimchim221@yahoo.com
Album: Rock Steady (2001)
Transcribed by Alfonso
Chords graphics :
 
 -----------------

[D6] [Em] [D] [A]  
 
 E||--7----7----10----9-----||
 B||--7----8----10----10----||
 G||--7----9----11----9-----||
 D||--7----9----12----11----||
 A||------------------------||
 E||------------------------||

TAB:
Verse and bridge:
 
 -----------------

[D6]I'm on the second floor with the [Em]l...
[D]Looking at a picture of your [A]f...
etc.
Chorus:
 
 ------

[D6] [Em]  
 
 E||---------------------------|--------------7-----------|
 B||--------7-----10--7--------|--------8--------8--------|
 G||-----7-----7---------7-----|-----9-----9--------9-----|
 D||--7---------------------7--|--9--------------------9--|
 A||---------------------------|--------------------------|
 E||---------------------------|--------------------------|

So I'm just kicking it, I'm c....
[D] [A]  
 
 ------------------10--------------|----------------9-------------||
 ----------10----------10----------|---------10--------10---------||
 ------11------11----------11------|------9------9---------9------||
 --12--------------------------12--|--11----------------------11--||
 ----------------------------------|------------------------------||
 ----------------------------------|------------------------------||

can't wait for us to hang out__________________________
etc.
|END|

Important: The song above is NOT stored on the Chordie server. The original song is hosted at www.xguitar.com. Chordie works as a search engine and provides on-the-fly formatting. Chordie does not index songs against artists'/composers' will. To remove this song please click here.

Text color:
Chord color:
Chord grids: 
Font size:    
Page size: 

A D D6 Em
Rate #1 of 2 versions

Jango Player

Login - add to songbook

SHARE PAGE  




You need to log in to post comments