Guitar Tabs, Chords and Lyrics
Major upgrade!! After one year development the new version of Chordie is now online! Please give feedback.


I Hope, I Think, I Know  Oasis

I HOPE, I THINK, I KNOW
(Gallagher)
From the album "Be Here Now"
Tabbed by Fred Lidskog <swede@email.unc.edu>
Chords used:
EADGBe
A (x02220)
[A2]Asus2 [(577655)](x02200)
Bm (x24432)
D (xx0232)
D2 (x57775)
Em (022000)
F#m11 (x44200)
G (3x0033)
[G2]Tab Key:[(355433)]
h = hammer on
p = pull off
b = bend (7b8 means bend string at 7th fret to make approximately the note
the string would make if played at the 8th fret with no bend
r = release bend
s = slide (a quick slide, two notes sound like one)
/ = a slower slide, play first note specified, then slide to second
> = slide sown an unspecified amount
~ = hold note
Intro
=====
-Starts with amplifier feedback, then:
[D] [Em] [G] [Bm] [A] [G] [D] [Em] [G]  
 
 e--------------------------------------------------------------------
 B---------------------7-8-7--10--8--7--------------------------------
 G-9b11~~-9b11--9~~--9------------------9------7-9bbb11--9b11--b11r9--
 D-----------------------------------------7h9------------------------
 A--------------------------------------------------------------------
 E--------------------------------------------------------------------

[Bm] [A] [G]  
 
 e-------------------------------
 B---7-8-7--10--8--7-------------
 G-9------------------9------7---
 D-----------------------7h9-----
 A-------------------------------
 E-------------------------------

Verse 1
=======
[D]They're trying hard to put me [Em]in my [G]place
And [Bm]that is why I've [A]gotta keep [G]runnin'
The [D]future's mine and it's [Em]no dis[G]grace
Cos [Bm]in the end the [A]past means [G]nothing
You tell me I'm free then you tie me down
And from my chains I think it's a pity
What did it cost you to wear my crown
You don't like me why don't you admit it
Pre-chorus
=========
D'you [A]feel a little down [Em]today
Bet you [G]ain't got much to [D]say
But you're gonna [A]miss me when I'm not [Em]there
You know I [G]don't care
 
 e----------3-------------3-------3-------3----------3-------3-----
 B----------3-------------3-------3-------3----------3-------3-----
 G----------0-------------0-------0-------0----------0-------0-----
 D----------0-------------0-------0-------0----------0-------0-----
 A----------x-------------x-------x-------x----------x-------x-----
 E----------3---------2---3---2---3---2---3------2---3---2---3---5-

NOTE: If you don't think the tabbed part above sounds just right, perhaps
you might try alternating between
a G and a G/F# or a G5 and a G5/F#
 
 e-3--------3-------------------------------------------------
 B-3--------3-------------------------------------------------
 G-0--------0-------------------------------------------------
 D-0--------0--------5---------5------------------------------
 A-x--------x--------5---------5------------------------------
 E-3--------2--------3---------2------------------------------

Chorus
======
[D2]As we [A]beg and steal and [G]borrow Life is hit and
 
 e-----------------------3---------3-------3----------------------------
 B-----------------------3---------3-------3----------------------------
 G-----------------------0---------0-------0----------------------------
 D-----------------------0---------0-------0----------------------------
 A-----------------------x---------x-------x----------------------------
 E-----------------------3-----2---3---2---3------5---------------------

[D2]miss, and [A2]this, I [Em]hope I think I [G2]know if I ever hear the
 
 e---------------------0--------------3----------------------------------
 B---------------------0--------------3----------------------------------
 G---------------------0--------------4----------------------------------D---------------------2--------------5----------------------------------
 A---------------------2--------------5----------------------------------
 E---------------------0--------0--2--3----------------------------------

[D2]names you [A2]call, and [Em]if I stumble [G2]catch me when I [F#m11]fall
 
 e---------------------------------3-----------------------0--------
 B---------------------------------3-------------------0-----0------
 G---------------------------------4-----------------2---2-----2----
 D---------------------------------5---------------4----------------
 A---------------------------------5---------------4----------------
 E------------------------------2--3---------------2----------------

Cos baby after [Asus2]all You'll never forget my
 
 e--------------0-------0----------------------
 B--------------0---0-----0--------------------
 G--------------2-2---2-----2------------------
 D--------------2------------------------------
 A--------------0------------------------------
 E---------------------------------------------

[D]name[Em] [G] [Bm] [A] [G] [D] [Em] [G]
 
 e--------------------------------------------------------------------
 B---------------------7-8-7--10--8--7--------------------------------
 G-9b11~~-9b11--9~~--9------------------9------7-9bbb11--9b11--b11r9--
 D-----------------------------------------7h9------------------------
 A--------------------------------------------------------------------
 E--------------------------------------------------------------------

[Bm] [A] [G]  
 
 e---------------------------------------
 B---7-8-7--10--8--7---------------------
 G-9------------------9------7--9b11--7--
 D-----------------------7h9-------------
 A---------------------------------------
 E---------------------------------------

Verse
=====
[D]They're trying hard to put me [Em]in my [G]place
 
 e-------------------------------------------------------------------
 B-------------------------------------------------------------------
 G-------------------------------------------7-----------------------
 D--------------------------------------7h9--------------------------
 A-------------------------------------------------------------------
 E-------------------------------------------------------------------

And [Bm]that is why I've [A]gotta keep [G]runnin'
 
 e---------------------------------------------------
 B----------------------------10---------------------
 G---------------------9b10.5----b10.5r9--9--7--9--7-
 D---------------------------------------------------
 A---------------------------------------------------
 E---------------------------------------------------

The [D]future's mine and it's [Em]no dis[G]grace
 
 e------------------------------------------------------------------
 B------------------------------------------------------------------
 G----------------------------------------7--9--7-------------------
 D------------------------------------7h9---------------------------
 A------------------------------------------------------------------
 E------------------------------------------------------------------

Cos [Bm]in the end the [A]past means [G]nothing
 
 e-----------------------------------------------------------------------
 B-----------------------------------------------------------------------
 G--------------------9b10.5--9--9--7------------------------------------
 D-----------------------------------------------------------------------
 A-----------------------------------------------------------------------
 E-----------------------------------------------------------------------

Pre-chorus
=========
D'you [A]feel a little down [Em]today
Bet you [G]ain't got much to [D]say
But you're gonna [A]miss me when I'm not [Em]there
You know I [G]don't care
 
 e----------3-------------3-------3-------3----------3-------3-----
 B----------3-------------3-------3-------3----------3-------3-----
 G----------0-------------0-------0-------0----------0-------0-----
 D----------0-------------0-------0-------0----------0-------0-----
 A----------x-------------x-------x-------x----------x-------x-----
 E----------3---------2---3---2---3---2---3------2---3---2---3---5-

Chorus
======
[D2]As we [A]beg and steal and [G]borrow Life is hit and
 
 e-----------------------3---------3-------3-------------------------
 B-----------------------3---------3-------3-------------------------
 G-----------------------0---------0-------0-------------------------
 D-----------------------0---------0-------0-------------------------
 A-----------------------x---------x-------x-------------------------
 E-----------------------3-----2---3---2---3------5------------------ D2 A2 Em G2

miss, and this, I hope I think I know if I ever hear the
 
 e---------------------0--------------3-------------------------------
 B---------------------0--------------3-------------------------------
 G---------------------0--------------4-------------------------------
 D---------------------2--------------5-------------------------------
 A---------------------2--------------5-------------------------------
 E---------------------0--------0--2--3-------------------------------

[D2]names you [A2]call, and [Em]if I stumble [G2]catch me when I [F#m11]fall
 
 e---------------------------------3-----------------------0--------
 B---------------------------------3-------------------0-----0------
 G---------------------------------4-----------------2---2-----2----
 D---------------------------------5---------------4----------------
 A---------------------------------5---------------4----------------
 E------------------------------2--3---------------2----------------

Cos baby after [Asus2]all You'll never forget my
 
 e--------------0-------0----------------------
 B--------------0---0-----0--------------------
 G--------------2-2---2-----2------------------
 D--------------2------------------------------
 A--------------0------------------------------
 E---------------------------------------------

Solo
====
[Em]name [G2] [Em] You'[G]ll never...
 
 e---------12---------------------------------------------------
 B----------------------------------------------------------0---
 G-14b15.5----14b15.5r14--12--12~~~~~---12-12/11-11/9-9/7-7-0---
 D----------------------------------------------------------0---
 A--------------------------------------------------------------
 E--------------------------------------------------------------

[Em]name[G] [A]
 
 e---------12------------------------------------------------------
 B-----------------------------------------------------------------
 G-14b15.5----b15.5r14--12--12--12-12/11-11/9-9/7-7/6-6/4-4/2-2p0--
 D-----------------------------------------------------------------
 A-----------------------------------------------------------------
 E-----------------------------------------------------------------

[A] [G2]  
 
 e-------------------------------------------------------------------3--
 B--------------------------------------2----------------------------3--
 G-12--12/11-11/9-9/7-7/6-6/4-4/2-2p0---2-(with a whole lot of other-4--
 D--------------------------------------2---noise going on-----------5--
 A--------------------------------------0----------------------------5--
 E-------------------------------------------------------------------3--

(CHORUS)
-then:
 
 D Em G Bm A Ge------------------------------------------------------------------
 B------------------------------------------------------------------
 G-9b10.5--9b10.5--9-----------7--9~~b10.5r9--7--9~~b10.5--7------7-
 D-----------------------7--9---------------------------------7h9---
 A------------------------------------------------------------------
 E------------------------------------------------------------------

[D] [Em] [G] [Bm] [A] [G]  
 
 e-----------------------------------------------------------
 B---------------------------------8-------------------------
 G-9b10.5--9b10.5--b10.5r9----9s11---b10.5r9--7------7--7~~~-
 D-----------------------------------------------7h9---------
 A-----------------------------------------------------------
 E-----------------------------------------------------------

[D] [Em] [G] [Bm] [A] [G]  
 
 e----------------------7-------------------------------------------------
 B----------------------------------------------------------7-7------7-7--
 G-12---11---9--9b10.5----b10r9--7--------12---11---9--9b11-----9b11------
 D----------------------------------9--7----------------------------------
 A------------------------------------------------------------------------
 E------------------------------------------------------------------------

[D] [Em] [G] [Bm] [A]  
 
 e---------------------7-------------------------7-7--------7-7--------7-7--
 B-----------------------------------------------7-7--------7-7--------7-7--
 G-12---11---9--9b10.5---b10.5r9--7-------9b10.5-----9b10.5-----9b10.5------
 D----------------------------------9--7------------------------------------
 A--------------------------------------------------------------------------
 E--------------------------------------------------------------------------

[G] [D]  
 
 e--------7-7--------7-7----------------------------------------------------
 B--------7-7--------7-7----------------------------------------------------
 G-9b10.5-----9b10.5------9bb10.5----b10.5rr9--------9--7~~~>--(digital-----
 D----------------------------------------------7h9--9--7~~~>---repeat------
 A--------------------------------------------------------------of last-----
 E--------------------------------------------------------------note)-------


Important: The song above is NOT stored on the Chordie server. The original song is hosted at www.xguitar.com. Chordie works as a search engine and provides on-the-fly formatting. Chordie does not index songs against artists'/composers' will. To remove this song please click here.

Text color:
Chord color:
Chord grids: 
Font size:    
Page size: 

A A2 Asus2 Bm D D2 Em F#m11 G G2
Rate #3 of 9 versions

Login - add to songbook

SHARE PAGE  




You need to log in to post comments