Guitar Tabs, Chords and Lyrics
Major upgrade!! After one year development the new version of Chordie is now online! Please give feedback.


Married With Children  Oasis

(Gallagher)
found on the album "Definitely Maybe"
NOTE: When playing the guitar
fills and the solo, listen to the recording for the correct rythym.
Chords used:
EADGBe
E (022100)
E? (076780) (This is the chord played once at the VERY end)
[G#]C#m [(466544)](x46654)
[A]AaddG [(577655)](x02223)
A11 (577600)
C (x35553)
B7 (x24242)
[F#]F#5 [(244322)](2443xx)
F#11 (244300)
G11 (355400)
B11 (799800)
INTRO
[-----]Tab key:
b = bend (7b8 means bend the string at the 7th fret to produce the note
that the string would make if played at the 8th fret with no bend)
r = release bend
h = hammer on
p = pull off
s = slide
[E] [G#] [C#m] [A] [C] [B7] [E] [E] [G#] [C#m] [A]  
 
 B-----------------5h7-5--7b8-7-5-------------------------5-7b8-7b8-7p5---5-7b8-----------------------
 G-------------4h6----------------------4-------------4-6---------------6-------------
 D----------------------------------4h6---4h6-4-2--s6------------------------------------

[C] [B7] [E]  
 
 B--7p5---5--7b8-7-5------------------------------------------------------------------
 G------6---------------------------------------------------------------------
 D---------------------------------------------------------------------------

VERSE 1
 
 -------

[E] There's no [G#]need for you to [C#m]say you're [A]sorry
Good[C]bye, I'm [B7]going [E]home[E]
 
 B---------5--------7b8-7-5--------------------------------------------------------
 G-----4h6------------------------4----------------------------------------------
 D-4h6------------------------4h6---6-4-6-4-6-4-2-----------------------------------------

[E] I don't [G#]care no more so [C#m]don't you w[A]orry
Good[C]bye, I'm [B7]going [E]home
 
 B---------5--------7b8-7-5--------------------------------------------------------
 G-----4h6----------------------------------------------------------------------
 D-4h6--------------------------------------------------------------------------

PRE-CHORUS
 
 ----------

[AaddG] I hate the way that even [E]though you know you're w[AaddG]rong
 
 B------------5--------------------------------------------7b8-7-5-----------------
 G-----4--4h6--------------------------------------------------------------------
 D-4h6--------------------------------------------------------------------------

You say you're [E]right [AaddG] I hate the books you read and
 
 B---------------------------------------------------------------------------
 G---------------------4------------------------------------------------------
 D-----------------4h6-----4h6-4-6-4-2-------------------------------------------------

[E]all your friends Your [F#5]music's shite it keeps me
 
 e---------------------------------0------------------------------------------
 B---------------------------0--------0----------------------------------------
 G------------------------------3--------3-------------------------------------

[A11]up all night up all [G11]night
 
 e---------------------------------------------------------------------------
 B----------5-------------3----------------------------------------------------
 G--------6-------------4------------------------------------------------------

[E] There's no [G#]need for you to [C#m]say you're s[A]orry Good[C]bye, I'm [B7]going
 
 B-----------------------------------------------5h7-5--------7b8-7-------------------
 G-------------------------------------------4h6--------------------------------
 D---------------------------------------------------------------------------

[E]home [E] I don't [G#]care no more so [C#m]don't you
 
 B-5-------------------------------------------------------------------------
 G--------4-------------------------------------------------------------------
 D----4h6---6---4-6-4-6-4-2------------------------------------------------------------

w[A]orry Good[C]bye, I'm [B7]going [E]home [AaddG] I hate the way the you are [E]so
 
 B------5--7--5--------7b8-7-5----------5-----------------------------------------------
 G---s6-----------------------------4h6-------------------------------------------
 D---------------------------------------------------------------------------

sarcastic And [AaddG]you're not very [E]bright [AaddG]You think that
 
 B--------7b8-7-5---5--------------------------------------------------------------
 G----------------6-----------------------4------------------------------------
 D------------------------------------4h6---6--4-6-4-6-4-2-----------------------------

everything you've [E]done's fantastic Your [F#5]music's shite it keeps me
 
 e--------------------------------------------------0-------------------------
 B---------------------------------------------0-------0-----------------------
 G------------------------------------------------3-------3--------------------

[A11]up all night up all [G11]night
 
 B----------5------------3-----------------------------------------------------
 G--------6------------4-------------------------------------------------------
 D---------------------------------------------------------------------------

SOLO
[----]  
[E] [G#] [C#m] [A] [C] [B7] [E] [E]  
 
 B----------5---5-7b8-7b8-b8r7-5----------------------------------------------------------
 G------4-6---6------------------------------------------4-----------------------
 D---s6---------------------------4b5-4b5-4--2-4-2---4h6---6--4-6-4-6-4-2------------------------ E G# C#m A C B7 E
 e------------------------------------7--------------------------------------
 B----------5---5-7b8-7b8-b8r7-5---s9---9-7--7-5------------------------------------------------
 G------4-6---6-----------------------------------------------------------------
 D---s6------------------------------------------------------------------------

BRIDGE
 
 ------

[C#m] And it will be [G#m]nice to be a[A]lone for a week or [E]two
 
 e---0------------------
 B---------3----------3-
 G---------------4------

[C#m] Then I know that[G#m] I will be right, [A]right back here with [B11]you
with [A11]you with [G#m]you with [F#11]you with [B11]you with [A11]you with [G#m]yoooooouu[F#11]uuu
FINAL VERSE
 
 -----------

[E] There's no [G#]need for you to [C#m]say you're s[A]orry Goodbye, I'm going
 
 B-----------------------------------------7b8-7p5---5--------7b8r7-------------------
 G-------------------------------------------------6-----------------------
 D-------------------------------------------------------------------------

[E]home [E] I don't [G#]care no more so [C#m]don't you
 
 B-------------------------------------------------------------------------
 G--------4-----4----------------------------------------------------------
 D----4h6---4h6---4-2------------------------------------------------------

worry Goodbye.......I'm going...............home
 
 e------------------------------------------------------0-----------
 B-------5--7--7b8-------7b8-7b8r7--5---------5--5------8-----------
 G----s6----------------------------------4h6-----------7-----------
 D------------------------------------------------------6-----------
 A------------------------------------------------------7-----------
 E------------------------------------------------------0-----------

NOTE: For all the "11" chords in this song (A11, B11, G11, F#11), the
rythym for strumming these chords is something like this (this example is
from the BRIDGE of the song):
[B11] [A11] [G#m] [F#11]  
 
 e------0-----------0--------4------------0-------------------------
 B------0-----------0--------4------------0--------------------------
 G------8-----------6--------4------------3----------------------------
 D--9------7--7--7-----7--6--6---4--4--4------------------------------------
 A--9------7--7--7-----7--6------4--4--4-----------------------------------
 E--7------5--5--5-----5--4------2--2--2----------------------------------


Important: The song above is NOT stored on the Chordie server. The original song is hosted at www.xguitar.com. Chordie works as a search engine and provides on-the-fly formatting. Chordie does not index songs against artists'/composers' will. To remove this song please click here.

Text color:
Chord color:
Chord grids: 
Font size:    
Page size: 

A A11 AaddG B11 B7 C C#m E F# F#11 F#5 G# G#m G11
Rate #11 of 34 versions

Login - add to songbook

SHARE PAGE  




You need to log in to post comments