Guitar Tabs, Chords and Lyrics
Major upgrade!! After one year development the new version of Chordie is now online! Please give feedback.


The Importance of Being Idle  Oasis

Please notice, it's a version of jazzvi, i only corrected the intro and added the solo.
Oasis - The Importance Of Being Idle (Noel Gallagher)
Don't Believe The Truth (2005)
Chords used:
[Am] [Fmaj7] [C] [B11] [E] [Dm] [G]  
 
 e|--0---0---0---0---0---1---3---|
 B|--1---1---1---0---0---3---3---|
 G|--2---2---0---2---1---2---0---|
 D|--2---3---2---1---2---0---0---|
 A|--0---3---3---2---2---X---2---|
 E|--0---0---0---0---0---X---3---|

intro: Am E (x3) (listen to the song to figure out this part)
[Am] [E] [Am]  
[Am]  
i [Am]sold my soul for the s[Fmaj7]econd time
cos the l[C]and, it don't [B11]pay m[E]e
i b[Am]egged my landlord for [Fmaj7]some more time
he said "s[C]on, the bills are [B11]wait[E]ing"
my b[Am]est friend called me the [Fmaj7]other night
he said "m[C]an, are you [B11]craz[E]y?"
my g[Am]irlfriend told me to g[Fmaj7]et a life
she said "b[C]oy, are you [B11]lazy[E]"
Dm Am (you can play barre chords here)
but i don't mind
as l[Dm]ong as there's a bed beneath the s[Am]tars that shine
[Dm]i'll be [Am]fine
if you g[Fmaj7]ive me a minute, a man's got a limit
i c[G]an't get a life if my he[E]art's not in it...
(instrumental)
[Am] [Fmaj7] [C] [B11-E]  
 
 e-|------------|-------------|-------------|
 B-|------------|10-12-10-8---|8-10-8-------|
 G-|7-9-7-------|-----------9-|--------9-7-9| (x2)
 D-|-------10-7-|-------------|-------------|
 A-|------------|-------------|-------------|
 E-|------------|-------------|-------------|
 e-|----------------------------|
 B-|15(B)-15(B)-15(B)-13----13--|
 G-|---------------------14-----| (x2)
 D-|----------------------------|
 A-|----------------------------|
 E-|----------------------------|
 e-|------12------------------|
 B-|15(B)----15(BR)-12-15-12--|
 G-|-------------------------9| (x1)
 D-|--------------------------|
 A-|--------------------------|
 E-|--------------------------|
 e-|--------------------------|
 B-|15(B)-15(B)-15(B)-13----13|
 G-|---------------------14---| (x1)
 D-|--------------------------|
 A-|--------------------------|
 E-|--------------------------|
 e-|------12--------------------|---------|
 B-|15(B)----15(BR)-12-15-12----|-15-12---|
 G-|----------------------------|--------9| (x1)
 D-|----------------------------|---------|
 A-|----------------------------|---------|
 E-|----------------------------|---------|

[Dm]i don't mind[Am]
as l[Dm]ong as there's a bed beneath the s[Am]tars that shine
[Dm]i'll be [Am]fine
if you g[Fmaj7]ive me a minute, a man's got a limit
i c[G]an't get a life if my he[E]art's not in it...
(repeat intro)
[Fmaj7] [Am]  
i l[Am]ost my faith in the s[Fmaj7]ummertime
cos it d[C]on't stop [B11]rain[E]ing
the [Am]sky all day is as b[Fmaj7]lack as night
but i'm n[C]ot comp[B11]lain[E]ing
i b[Am]egged my doctor for [Fmaj7]one more line
he said "s[C]on... words [B11]fail [E]me"
it [Am]ain't no place to be [Fmaj7]killing time
i guess [C]i'm just [B11]lazy[E]
[Dm]i don't mind[Am]
as l[Dm]ong as there's a bed beneath the s[Am]tars that shine
[Dm]i'll be [Am]fine
if you g[Fmaj7]ive me a minute, a man's got a limit
i c[G]an't get a life if my he[E]art's not in it...
(repeat intro)
Am E (ends with Am)
Feel free to send me corrections on solo
madferit AT gmx DOT at

Important: The song above is NOT stored on the Chordie server. The original song is hosted at www.xguitar.com. Chordie works as a search engine and provides on-the-fly formatting. Chordie does not index songs against artists'/composers' will. To remove this song please click here.

Text color:
Chord color:
Chord grids: 
Font size:    
Page size: 

Am B11 C Dm E Fmaj7 G
Rate #2 of 5 versions

Login - add to songbook

SHARE PAGE  




You need to log in to post comments