Guitar Tabs, Chords and Lyrics
Major upgrade!! After one year development the new version of Chordie is now online! Please give feedback.


Better Man  Oasis

Oasis - Better Man
Liam Gallagher
Heathen Chemistry
Track #11
Intro
[F#]  
 
 ------------------------------------
 -5---5--5-----5~---5---5--5---------
 -4b5-b5-b5--5r4~---4b5-b5-b5--5r4-2-
 ------------------------------------
 ------------------------------------
 ------------------------------------

verse
F#(2x) A7
 
 ------------------- ---------5-------5-------5---------
 ---------2--------- -----------8-------8-------8-------
 ---------2--------- -----5s6-----5s6-----5s6-----5s6---
 ---4-2h4---4-2-2h4- ---7-----------------------------5-
 ------------------- -----------------------------------
 -2----------------- -5---------------------------------

[F#]i wanna love you
i wanna be a better man[A7]
[F#]i don't want to hurt you
i just wanna see what's in your [A7]hands
[F#]well alright now
[A7]yeah yeah
[F#]well alright now
[A7]yeah yeah
Chorus
riff 1 Riff 2
F#(2x) F# 1.(2x) 2.(4x)
 
 ------------------------------ -------------------
 -----5------------------------ -5---5---5---------
 -4s6---6-4-6-4-2-------------- -4b5-b5-r4-2-------
 ------------------4-2--------- -------------4-2h4-
 ----------------------4-2----- -------------------
 --------------------------5-2- -------------------

B A F#(riff 1)
arh then i'll know you'll understand
[B] [A] [F#] 
(riff 2)
arh then i'll know you'll understand
verse
i wanna love you
i wanna be a better man
i don't want to hurt you
i just wanna see what's in your hands
well alright now
yeah yeah
well alright now
yeah yeah
then i'll know you'll understand
then i'll know you'll understand
Outro
Gtr 2
[F#-A-B] [D]  
 
 --------------------------------- ---------------------------------------------
 -7-7-7-7-7-7-7-7-7-7-7-7-7-7-7-7- -7-7-7-7-10-10-10-10-12-12-12-12-14-14-14-14-
 --------------------------------- --------------------------------------------
 --------------------------------- --------------------------------------------
 --------------------------------- --------------------------------------------
 --------------------------------- --------------------------------------------

[F#]i'm gonna be a better man
[A]i'm gonna be a better man[B] [D]
[F#]i'm gonna be a better man
[A]i'm gonna be a better man[B] [D]
i'm gonna be a better man
i'm gonna be a better man
i'm gonna be a better man
i'm gonna be a better man
yeeeeeah
awwhhhhh
yeeeeeah
awwhhhhh

Important: The song above is NOT stored on the Chordie server. The original song is hosted at www.xguitar.com. Chordie works as a search engine and provides on-the-fly formatting. Chordie does not index songs against artists'/composers' will. To remove this song please click here.

Text color:
Chord color:
Chord grids: 
Font size:    
Page size: 

A A7 B D F#
Rate #1 of 10 versions

Jango Player

Login - add to songbook

SHARE PAGE  




You need to log in to post comments