Guitar Tabs, Chords and Lyrics
Major upgrade!! After one year development the new version of Chordie is now online! Please give feedback.


Hung in a Bad Place  Oasis

Written by Gem Archer
Hung in a Bad Place
 
 -------------------

F# B (x6)
Verse
 
 -------

[F#] [B]  
 
 g--------------4-4-4-4-4-4
 d-4-4-4-4-4-4--4-4-4-4-4-4
 a-4-4-4-4-4-4--2-2-0-2-0-2
 E-2-2-0-2-0-2------------- etc

I can[F#] go ................
[B]Be ............ [F#]be now. [B] etc
Riff 1
 
 B------5---5-
 G----6---6----
 G-------------------2------------------------
 D-------------2--4----4--2-------------------
 A-----0--2--4----------------4--2--0---------
 E--2---------------------------------2-------
 e------------------------
 B---4b6r4p2----4b6r4p2---
 G------------4---------4-
 D------------------------
 e---------------------------------------------
 b---------------------------------------------
 g------------------------2-----2-----2-----2--
 d-------------2--4---2h4---2h4---2h4---2h4----
 a----0--2--4----------------------------------
 E--2------------------------------------------

[F#] [B] [F#] [B] [F#] [B]  
 
 e----------------------------------------------------------------------
 b--10--7-----10--7----10--7-----10--7----10--7----10--10b12-p-7--------
 g---------9------------------9------------------9----------------------
 d----------------------------------------------------------------------
 a----------------------------------------------------------------------
 E----------------------------------------------------------------------
 e----------- e----------------------------
 b--14------- (a few times)then b-----17b19r17-17-17b19r17-17 a few times
 g--16b18r16- g----------------------------

Outro
 
 e-----------------------
 b--7-----7-----7--------
 g--9b11--9b11--9b11-----


Important: The song above is NOT stored on the Chordie server. The original song is hosted at www.xguitar.com. Chordie works as a search engine and provides on-the-fly formatting. Chordie does not index songs against artists'/composers' will. To remove this song please click here.

Text color:
Chord color:
Chord grids: 
Font size:    
Page size: 

B F#
Rate #2 of 9 versions

Login - add to songbook

SHARE PAGE  



You need to log in to post comments