Guitar Tabs, Chords and Lyrics
Major upgrade!! After one year development the new version of Chordie is now online! Please give feedback.


Little by Little  Oasis

Little By Little by Oasis
 
 -------

-Intro-
 
 -------

[C] [G] [Em] [A] [Em] [A]  
 
 ---------

-Verse 1-
 
 ---------

[Em]We the people fight for our ex[A]istence
We [Em]don't claim to be perfect but we're [A]free
We [Em]dream our dreams alone with no res[A]istance
[Em]Fading like the stars we wish to [A]be
 
 --------------

-Pre-chorus 1-
 
 --------------

Y'know I didn't [D]mean what I just [G]said[D/F#]
But my [Em]God woke up on the wrong side of His [A]bed
And it just don't matter now
 
 ----------

-Chorus 1-
 
 ----------

[G]'Cause little by [D]little, we [A]gave you everything you [Em]ever [D/F#]dreamed of[G]
And little by [D]little, the [A]wheels of your life have [Em]slowly [D/F#]fallen [G]off
Little by [D]little, you [A]have to live it [Em]all in [D/F#]all your [G]life
And all the [D]time, I just [C]ask myself [G]why are you really [A]here?
 
 ---------

-Verse 2-
 
 ---------

[Em]True perfection has to be im[A]perfect
I [Em]know that that sounds foolish but it's [A]true
The [Em]day has come and now you'll have to [A]accept
The [Em]life inside your head we give to [A]you
 
 --------------

-Pre-chorus 2-
 
 --------------

[Same as Pre-cborus 1] 
 
 ----------

-Chorus 2-
 
 ----------

[Same as Cborus 1] 
 
 -------------

-Guitar Solo-
 
 -------------

Part 1
[A] [A] [G] [D/F#]  
 
 e----------------------------------------
 B----------------------------------------
 G---------6h7-7b9r7-6--------------------
 D-5h7~-7~-------------7-5----5h7~-7~-5-4-
 A-------------------------h7-------------
 E----------------------------------------

Part 2
[Repeat Part 1] 
Part 3
[D] [D] [D/F#] [G]  
 
 e---------------------------------------
 B-----------------------------7----8-10-
 G-5h7~-7~-5-5h7~-7~-5-5h7~-7~-----------
 D---------------------------------------
 A---------------------------------------
 E---------------------------------------

Part 4
[D] [A] [G]  
 
 e-----------------------------------------------------
 B-------------------10~-10~-10~-10~-10~-10~-10b12r10~-
 G-5h7~-7~-5-5h7~-7~-----------------------------------
 D-----------------------------------------------------
 A-----------------------------------------------------
 E-----------------------------------------------------
 ----------

-Chorus 3-
 
 ----------

[G]'Cause little by [D]little, we [A]gave you everything you [Em]ever [D/F#]dreamed of[G]
And little by [D]little, the [A]wheels of your life have [Em]slowly [D/F#]fallen [G]off
Little by [D]little, you [A]have to live it [Em]all in [D/F#]all your [G]life
And all the [D]time, I just [A]ask myself [Em]why are you [D/F#]really [G]here?[D] [A]
[Play this riff starting at the word "here" in the last line of the chorus.
Play it after the first and second lines of the outro too]
[G] [D] [A] [Em]  
 
 e-----------------------------------------------------------
 B----------------------------------------------------15-15~-
 G-11h12-11h12-14-12-11h12-11h12-14-12-11h12-11h12-14--------
 D-----------------------------------------------------------
 A-----------------------------------------------------------
 E-----------------------------------------------------------
 -------

-Outro-
 
 -------

Why [Em]am I [D/F#]really [G]here?[D] [A]
Why [Em]am I [D/F#]really [G]here?[D] [A]
Why [Em]am I [D/F#]really [G]here?[D] [C] [G] [D] [C+9]
[Play tbis riff after tbe last line in tbe outro, starting at tbe word "bere"] 
 
 e-----------------------------------------------------------------
 B----------------------------------15-15-17-17b19r17-15-15h17p15~-
 G-11h12-11h12-14-12-11h12-11h12-14--------------------------------
 D-----------------------------------------------------------------
 A-----------------------------------------------------------------
 E-----------------------------------------------------------------

[Repeat D C+9 till fade] C+9=x32032

Important: The song above is NOT stored on the Chordie server. The original song is hosted at www.xguitar.com. Chordie works as a search engine and provides on-the-fly formatting. Chordie does not index songs against artists'/composers' will. To remove this song please click here.

Text color:
Chord color:
Chord grids: 
Font size:    
Page size: 

A C C+9 D D/F# Em G
Rate #7 of 23 versions

Login - add to songbook

SHARE PAGE  



You need to log in to post comments