Guitar Tabs, Chords and Lyrics
Major upgrade!! After one year development the new version of Chordie is now online! Please give feedback.


Don't Look Back in Anger  Oasis

(Gallagher)
track 4 on (WTS)MG?
and as a single
NOTE: During many of the guitar fills in this song (mostly during the ones
in the pre-chorus) there are 2 guitars playing 2 different fills. For most
of the fills I've written down the one that is more prevalent in the song
(i.e. you hear it louder than the other fill) but for a couple of them, I
tried to combine the two fills. In verse 2, both are written out, with
guitar 1 being the one playing the chords, guitar 2 playing one fill, and
guitar 3 playing another fill.
Chords used:
EADGBe
C (x32010)
G (3x0033)
[G2]Am [(355433)](x02210)
E (022100)
F (x33211)
[F2]Fm [(133211)](x33111)
Abdim (456xxx)
Tab Key
 
 -------

b = bend (7b8 means bend the string at the 7th fret to make the note the
string would make if played at the 8th fret with no bend)
r = release bend
h = hammer on
p = pull off
s = slide
Intro (guitar & piano parts mixed and tabbed for guitar)
[-----]  
[C] [F] [C] [F]  
 
 e-----------------------------------------------------------------------------
 B-1---1---1---1----1---1---1--------1-1---1---1---1---1--1---1----------------
 G-0---0---0---0----2---2---2------0---0---0---0---0---2--0h2-0------0-------0-
 D-2---2---2---2----3---3---3--2h3-----2---2---2---2---3---------0h2---0h2p0---
 A---3---3---3---3----3---3--------------3---3---3---3-------------------------
 E-----------------------------------------------------------------------------

Verse 1
 
 -------

[C]Slip inside the [G]eye of your m[Am]ind
Don't you [E]know you might fi[F]nd
G C Am G (play these 2 chords quickly)
A better place to play
[C]You said that [G]you'd never b[Am]een
But all the [E]things that you've s[F]een
[G] Slowly fade a[C]way[Am] [G]
Pre-Chorus
 
 ----------

[F] So I start a revol[Fm]ution from my[C] bed
 
 e-----------------------------
 B-----------------------------
 G----5---5--------------------
 D----5h7-5-------5------------
 A------------5s7-----7s5--3---
 E-----------------------------

Cos you [F]said the brains I [Fm]had went to my[C] head
 
 e----------------------
 B----------------------
 G-----------5-5-----5--
 D-----------5-5-----5--
 A---------------5h7----
 E---------------------- 

[F]Step outside, the [Fm]summertime's in [C]bloom
 
 e------------------8-8---
 B------------------8-8---
 G--------------8h9-------
 D------------------------
 A------------------------
 E------------------------

[G]Stand up beside the fireplace
[Abdim]Take that look from off your face
Cos [Am]you ain't ever [G2]gonna burn my [F2]heart ouuuuuuuuu[G2]uuuuuuut
G2(cont.)
 
 e--------------------------
 B----------------5---------
 G--5---5--7--7b9---7p5--7--
 D--5h7-5-------------------
 A--------------------------
 E--------------------------

(NOTE: The "Abdim" chord in the pre-chorus could possibly also be played 4
other ways if you don't think the "Abdim" sounds right:
G#/E (4x2100)
G#/E7 (420100)
Abdim (xx0101)
Abdim7 (056400)
Chorus
 
 ------

[C]So [G]Sally can [Am]wait, she [E]knows it's too [F]late
as she's w[G]alking on b[C]y[Am] [G]
Her [C]soul [G]slides aw[Am]ay, [E] but don't look [F]back in anger[G]
I heard you s[C]ay[G] [Am] [E] [F] [G] [C] [Am]
 
 e---------------------------------------------------------
 B-----------------------------------8---------------------
 G-----------5-7-7b9r7--5---5----7s9----b8r7--5--------5h7-
 D-------5h7--------------7------------------------5h7-----
 A---------------------------------------------------------
 E---------------------------------------------------------

Verse 2
 
 -------

[G] [C]Take me to the [G]place where you [Am]go
 
 e-------------
 B-------------
 G-----5h7--5--
 D-5h7---------
 A-------------
 E-------------

Where [E]nobody k[F]nows, [G] if it's night or [F]day
 
 e----------------------------------
 B----------------------------------
 G--5---5------------------5h7---5--
 guitar #2 D--5h7-5----------5---5h7----------
 A---------5--5h7-------------------
 E----------------------------------

[Am] [G] [C]Please don't put your [G]life in the [Am]hands
 
 e-----------------------------------------------------------
 B-----------------------------------------------------------
 guitar 2 G--7b9--7--5--7--5-------------------------------------5--5-
 D--------------------------------------------------5h7------
 A-----------------------------------------------------------
 E-----------------------------------------------------------
 guitar 3 e--12------12----
 B--15b17---15b17-

of a [E]rock and roll [F]band, [G] who'll throw it all [C]away
 
 e-------------------------------------------------------
 B-------------------------------------------------------
 guitar 2 G---7-5--7b9--7--5--7--5--------------------5--5-----5--
 D--------------------------------------5h7--------7-----
 A-------------------------------------------------------
 E-------------------------------------------------------
 e-12----12------

guitar 3 B-15b17-15b17---
Pre-Chorus
 
 ----------

[F] Gonna start a revo[Fm]lution from my [C]bed
 
 e----------------8---------
 B----------------8---------
 G------------8h9--------5--
 D-----------------------5--
 A-------------------5h7----
 E-------------------------- F Fm C F

Cos you said the brains I had went to my head Step
 
 e---------------------------------------
 B------------------------5--------------
 G-------------------7b9-----7p5-----5---
 D--------------------------------7------
 A---------------------------------------
 E---------------------------------------

outside, the [Fm]summertime's in [C]bloom
 
 e--------8-8---------
 B--------8-8---------
 G----8h9------------- D--------------------
 A--------------------
 E--------------------

[G]Stand up beside the fireplace
[Abdim]Take that look from of your face
Cos [Am]you ain't never [G2]gonna burn my[F2] heart oooooouuuu[G2]uuuuut
G2(cont.)
 
 e-----------------------------------------5--------------------
 B--------------------------------------------------------------
 G--------5---7--5--7b9r7--5-----5--7--7b9----7--5--7--5--7--5--
 D---5h7----------------------7---------------------------------
 A--------------------------------------------------------------
 E--------------------------------------------------------------

Chorus again:
 
 -------------

So sally can wait, she knows it's too late
as she's walking on by
Her soul slides away, but don't look back in anger
I heard you say
Guitar Solo
 
 -----------

[F] [Fm] [C]  
 
 e----------------------------------------------8-------------
 B----------------------------------------------8-------------
 G----5--7b8r7-7b8r7-7b8r7--5-----------5---8h9----5-----5----
 D--7--------------------------5---5h7----------------7-------
 A------------------------------------------------------------
 E------------------------------------------------------------

[F] [Fm] [C] [F]  
 
 e---------------------------------------------------------------------------
 B---------------------------------------------------------------------------
 G--7-5--7b8r7-7b8r7-7b8r7--5-----5---5--------------------------------------
 D-----------------------------5--5h7-5------5--------------------------5--7-
 A---------------------------------------5h7---7p5-3----------3--5--5s7------
 E------------------------------------------------------1--5-----------------

[Fm] [C] [G]  
 
 e--------------------------------------8--8--8h10--8-------8------8------8--
 B----------------------------8--8--10-----------------8h10---8h10---8h10----
 G-5--5--7b9--7--5-----5---s9------------------------------------------------
 D------------------7--------------------------------------------------------
 A---------------------------------------------------------------------------
 E---------------------------------------------------------------------------

[Abdim] [Am]  
 
 e------8------8--8h10p8------8------8------8-------12----12----12----12-----
 B-8h10---8h10-----------8h10---8h10---8h10---8h10--15b17-15b17-15b17-15b17--
 G---------------------------------------------------------------------------
 D---------------------------------------------------------------------------
 A---------------------------------------------------------------------------
 E---------------------------------------------------------------------------

[G2] [F2]  
 
 e-12----12-----------------------------------17---------------------
 B-15b17-15b17--15b17r15--13----13--15--15b17---b17r15--15-17-15-17--
 G---------------------------14--------------------------------------
 D-------------------------------------------------------------------
 A-------------------------------------------------------------------
 E-------------------------------------------------------------------

[G2]  
 
 e--------12-12-------12-12-------12-12-------12-12-------12-12--12------
 B--15b17-------15b17-------15b17-------15b17-------15b17--------15b17---
 G-----------------------------------------------------------------------
 D-----------------------------------------------------------------------
 A-----------------------------------------------------------------------
 E-----------------------------------------------------------------------

(Chorus again)
[C]So [G]Sally can w[Am]ait, she [E]knows it's too l[F]ate as we're [G]walking on [C]by[Am] [G]
Her [C]soul [G]slides aw[Am]ay, [E]
but don't look [F]back in ang[G]er I heard you [C]say [Am] [G] [C]So
 
 e----------------------------------------------------------------------
 B--------------------8--8-8----6--6--6---5-----------------------------
 G--------------------9--9-9----7--7--7---5----7b9---7p5---5--5h7-5--5--
 D-------------------------------------------------------7--------------
 A----------------------------------------------------------------------
 E----------------------------------------------------------------------

[G]Sally can [Am]wait, sh[E]e knows it's too [F]late as we're [G]walking on [C]by
 
 e----------------------------------------------------------------
 B------5--5s9----------------5--5s9----------8--8--8----6-----5--
 G-5--7--------------5--5--7------------------9--9--9----7-----5--
 D----------------------------------------------------------------
 A----------------------------------------------------------------
 E----------------------------------------------------------------

Her [C]soul [G]slides aw[Am]ay (long pause)
 
 e---------------------------------------------
 B--6---5----8---------------8---------6p5--5--
 G----5---5-----5--5---------------------------
 D---------------------------------------------
 A---------------------------------------------
 E--------------------------------------------

But don't look [F]back in anger
Don't look [Fm]back in anger (pause)
I heard you [C]say [G] [Am] [E]
 
 e--------------------------------------------------------------
 B--------------------------------------------------------------
 G---------------5-7--7b9r7--5-----5--7--5--7b9---7--5---5h7--5-
 D----------5h7-----------------7-------------------------------
 A-----5h7------------------------------------------------------
 E--------------------------------------------------------------

[F] [Fm] least not to[C]day
 
 e--------------------------0----------------
 B--------------------------1----------------
 G--------------------------0----------------
 D--7--5------------5-------2----------------
 A--------3-5-5s7---------7s3----------------
 E-------------------------------------------


Important: The song above is NOT stored on the Chordie server. The original song is hosted at www.xguitar.com. Chordie works as a search engine and provides on-the-fly formatting. Chordie does not index songs against artists'/composers' will. To remove this song please click here.

Text color:
Chord color:
Chord grids: 
Font size:    
Page size: 

Abdim Am C E F F2 Fm G G2
Rate #6 of 14 versions

Login - add to songbook

SHARE PAGE  



You need to log in to post comments