Guitar Tabs, Chords and Lyrics
Major upgrade!! After one year development the new version of Chordie is now online! Please give feedback.


Go Let It Out  Oasis

Transcribed by David Lane (dlane@ihug.com.au)
Written by Noel Gallagher
CHORDS USED
[A7] [A] [D] [Fmaj7] [G] [Cadd9]  
 
 0--0-2---0---3---3---
 2--2-3---1---3---3---
 0--2-2---2---0---0---
 2--2-0---3---0---2---
 0--0-----3---2---3---
 ---------1---3-------

(INTRO DRUM LOOP THEN COUNT IN)
A7 (for 2 bars)
VERSE 1
[A7]Make no illusion try to click with what you got
[A7]Taste every potion to see if you like yourself a lot
CHORUS
Go let it [D]out
Go let it [Fmaj7]in[G]
Go let it [A7]out
(Click with the bass!)
VERSE 2
[A7]Life is precocious in the most peculiar way
[A7]Sister psychosis don't got a lot to say
CHORUS
She go let it [D]out
She go let it [F]in [G]
She go let it [A]out
(REPEAT)
BRIDGE
[D] Is there any [Fmaj7]wonder why [A7]princes and [Cadd9]kings
[D] And clowns that [Fmaj7]caper in their [A7]sawdust [Cadd9]ringsD Fmaj7 A7 Cadd9
Ordinary people that are like you and me
We're the [G]builders of their desti[D]ny
We're the [G]keepers of their desti[D]ny
A7 (2 bars)
VERSE 3
I'm gonna [A7]leave in the city I'm gonna drive him out of town
And [A7]you're coming with me the right time is always now
CHORUS
So go let in [D]out
An' go let it [Fmaj7]in[G]
An' go let it [A7]out
(REPEAT)
(REPEAT BRIDGE, LAST LINE 4 TIMES)
LINK
 
 --2---2----3---3----4---4-----3---3--
 ----3--------3--------3---------3----
 -------------------------------------
 0-------0--------0---------0---------
 -------------------------------------
 -------------------------------------

(x3 THEN;)
(GUITAR 1)
 
 --2---2----3---3----4---4-----4---4-----4---4-----4---4----
 ----3--------3--------3---------3---------3---------3------
 -----------------------------------------------------------
 0-------0--------0---------0---------0---------0-----------
 -----------------------------------------------------------
 -----------------------------------------------------------

(GUITAR 2)
(feedback)
 
 G -------------------------------------7~~~~7~~~~7~~~~7~~~~

OUTRO CHORUS
Go let it [D]out
Go let it [Cadd9]in[G]
Go let it [D]out
Don't let it [Cadd9]in[G]
Go let it [D]out
Go let it [Cadd9]in[G]
Go let it [D]out
Don't let it in [Cadd9]don't let it in don't [G]let it in
SOLO
BU BD BU BD
 
 E-----------------------------------------------
 B--7--8--10---8-7-------------------------------
 G------------------11-(12)-11-9--9-(11)-9--7--7-

(x3, THEN)
BU BD S
 
 E-----------------------------------8/10-10-10-10-10-10-10-10---
 B--7--8--10---8-7-----------------------------------------------
 G------------------11-(12)-11-9--9------------------------------

CODA
(GUITAR 1: FINGER PICKING)
 
 ---4---4-------2---2-----
 -----3---3-------3---3---
 -------------------------
 0-----------0------------
 -------------------------
 -------------------------

(REPEAT TO FADE)
(GUITAR 2: SOLO)
 
 ------------------------------------------------------------------------------------
 -----------------------------------------------13-(15)-13--10-----------------------
 ----10----10---------10----10--------10----10------------------12--12-(14)-12--10---
 /12----12----12--/12----12----12-/12----12----------------------------------------12
 ------------------------------------------------------------------------------------
 ------------------------------------------------------------------------------------

(REPEAT TO FADE)

Important: The song above is NOT stored on the Chordie server. The original song is hosted at www.xguitar.com. Chordie works as a search engine and provides on-the-fly formatting. Chordie does not index songs against artists'/composers' will. To remove this song please click here.

Text color:
Chord color:
Chord grids: 
Font size:    
Page size: 

A A7 Cadd9 D F Fmaj7 G
Rate #1 of 22 versions

Login - add to songbook

SHARE PAGE  




You need to log in to post comments