Guitar Tabs, Chords and Lyrics
Major upgrade!! After one year development the new version of Chordie is now online! Please give feedback.


I Can See a Liar  Oasis

I CAN SEE A LIAR from STANDING ON THE SHOULDER OF GIANTS
Transcribed by David Lane (dlane@ihug.com.au)
Written by Noel Gallagher
CHORDS USED
[D] [D/C#] [D/C] [D/B]  
 
 ----------------------
 ----------------------
 7----7------7-----7---
 7----7------7-----7---
 X----X------X-----X---
 10---9------8-----7---

Phrase 1
 
 ---------------------------3-
 3-3-3-3--3----3-3-3-3--3---3-
 2-2-2-0--2----2-2-2-0--2---0-
 0-0-0-0--0----0-0-0-0--0---0-
 0-0-0-3--0----0-0-0-3--0---2-
 ---------------------------3-

Phrase 2
 
 A-5-5-3-3-3-5---
 E-3-3-1-0-1-3---

INTRO
(Phrase 1 x4, then Phrase 2 x3)
VERSE 1
[D]Baby the [D/C#]time is right
To [D/C]tell it all like it [D/B]is
[D]And now that I [D/C#]feel alright
There's [D/C]nothing that can't be [D/B]kissed
[D]The name of a [D/C#]lonely soul
Is [D/C]scratched into my [D/B]brain
[D]He thought he was [D/C#]king creole
Un[D/C]til he found out
[D/B]Till he found out
[Bb]He sits upon a throne
[C]He lives [D]a sleazy [Bb]lie
But he's all alone [A]again [C]again
CHORUS
(Phrase 1) (Phrase 2)
I can see a liar
(Phrase 1) (Phrase 2)
Sitting by the fire
(Phrase 1) (Phrase 2)
Trouble in his heart
(Phrase 1)
Laughing at the thought
(Phrase 2)
Coming as he goes
(Phrase 2)
Into overdose
(Phrase 2) G
I wonder what he feels to me
VERSE 2
[D]Baby the [D/C#]time is right
To [D/C]tell it all like it [D/B]is
[D]And now that I [D/C#]feel alright
There's [D/C]nothing that can't be [D/B]kissed
[Bb]He sits upon a throne
[C]He lives [D]a sleazy [Bb]lie
But he's all alone [A]again [C]again
(REPEAT CHORUS)
SOLO
[Bb] [F] [G]  
[B] [B] [B]  
 
 -------------------------------------------------------6--8-(10)-----
 8(9)8--6-8------8(9)8--6-8------8(9)8--6-8-----8(9)8-----------------
 ------------7---------------7---------------7------------------------
 ---------------------------------------------------------------------
 ---------------------------------------------------------------------
 ---------------------------------------------------------------------

[Bb] [F] [A] [C] 
[B]  
 
 ----------------------------------------------
 8(9)8--6-8------8(9)8--6-8--------------------
 ------------7---------------7--5-7-7-7-7-7-7--
 ----------------------------------------------
 ----------------------------------------------
 ----------------------------------------------

OUTRO CHORUS
(Phrase 1) (Phrase 2)
Baby you're a liar
(Phrase 1) (Phrase 2)
Sitting by the fire
(Phrase 1) (Phrase 2)
Trouble in your heart
(Phrase 1) (Phrase 2)
You're laughing at the thought
(Phrase 1) (Phrase 2)
Yeah baby you're a liar
(Phrase 1) (Phrase 2)
Sitting by the fire
(Phrase 1) (Phrase 2)
Trouble in your heart
(Phrase 1) (Phrase 2)
You're laughing at the thought
(Phrase 2)
Coming as you goes
(Phrase 2)
Into overdose
(Phrase 2) G
I wonder what you think of me
End on Phrase 1

Important: The song above is NOT stored on the Chordie server. The original song is hosted at www.xguitar.com. Chordie works as a search engine and provides on-the-fly formatting. Chordie does not index songs against artists'/composers' will. To remove this song please click here.

Text color:
Chord color:
Chord grids: 
Font size:    
Page size: 

A B Bb C D D/B D/C D/C# F G
Rate #1 of 8 versions

Login - add to songbook

SHARE PAGE  



You need to log in to post comments