Guitar Tabs, Chords and Lyrics
Major upgrade!! After one year development the new version of Chordie is now online! Please give feedback.


Roll It Over  Oasis

Written By Noel Gallagher
Transcribed by David Lane (dlane@ihug.com.au)
CHORDS USED
[C#msus2] [Amaj7sus2] [B] [E] [F#] [Asus2]  
 
 ---0--------0------X--0--2-----0----
 ---0--------0------4--0--2-----0----
 ---6--------6------4--1--3-----2-------6--------6------4--2--4-----2----
 ---4--------0------2--2--4-----0----
 ---X--------X------X--0--2-----X----

PHRASE 1
 
 -----------0--------------------0------------
 -----0----------0----------0---------0-------
 -------6------6---6----------6-----6---6-----
 ---6---------------------6-------------------
 -4---------------------0---------------------
 ---------------------------------------------

PHRASE 2
BU BD S
 
 G--6-(7)--(7)-6--4----\1-------
 PHRASE 3 (All harmonics)E-12-----12------12------12------12------12------
 B----12------12------12------12------12----------

VERSE 1
[C#msus2]I can hear the hundred million [Amaj7sus2]reasons
(Phrase 1)
To build a barricade
[C#msus2]Blame it on the changing of the [Amaj7sus2]season
(Phrase 1)
The thoughts that I convey
PRECHORUS (Main guitar plays single bass notes)
[B] Does it [B/A]make it alright?[B/G#] [B/F#]
[B] It doesn't [B/A]make it alrig[B/G#]ht[B/F#]
CHORUS
[E] So roll it over my [F#]soul leave me [Asus2]here[E]
[E] Roll it over my [F#]soul leave me [Asus2]here [G](Ph[F#]rase[E] 2)
VERSE 2
[C#msus2]Look around at all the plastic [Amaj7sus2]people
(Phrase 3)
Who live without a care
[C#msus2]Try to sit with me around my [Amaj7sus2]table
(Phrase 3)
But never bring a chair
(REPEAT PRECHORUS + CHORUS)
Stay on E until solo
SOLO (Chords implied, bass stays on E)
BU BU BD [G/E] BU BU BD [A/E] BU BU BD [E] H B
 
 ---------------------------------------------------------------------------------------------
 15-(17)-15-(17)-15--12--15-(17)--------------------------------------------------------------
 ----------------------------------12--(16)-14-12-14-(16)---(16)-14-12------------------------
 -----------------------------------------------------------------------14--------------------
 ------------------------------------------------------------------------------12-14-----------
 -------------------------------------------------------------------------------------15--12---

(x2)
BU BU BD [G/E] BU BU BU BD [A/E] BU BU BU[C/E]
 
 -------------------------------------15-(17)-15-(17)-15--12------------17-(19)-17-(19)-15-----
 12-15-(17)-15-(17)-15--12--15-(17)---------------------------15-(17)----------------------17--
 ----------------------------------------------------------------------------------------------
 ----------------------------------------------------------------------------------------------
 ----------------------------------------------------------------------------------------------
 ----------------------------------------------------------------------------------------------

BU BU BD [D/E] BU BU BU BU BU BD [E] B
 
 ------------------------15-(17)---------------------------------------------------------------
 15-(17)-15-(17)-15--12-----------15-(17)-15-(17)-15--12---------------------------------------
 ---------------------------------------------------------14-(16)----(16)-14-12-----------12---
 -------------------------------------------------------------------------------14--12-14------
 ----------------------------------------------------------------------------------------------
 ----------------------------------------------------------------------------------------------

S S
 
 -----------------------------------------------------------------------------------
 -----------------------------------------------------------------------------------
 ---------------------------------------12------------------------------------------
 14-12--------------------------------------14-12-----------------------------------
 -------14--12---------------10--12/14-------------14\12-10-------------------------
 --------------15--12--12------------------------------------12----10--7--5--3------

(REPEAT CHORUS TO END)

Important: The song above is NOT stored on the Chordie server. The original song is hosted at www.xguitar.com. Chordie works as a search engine and provides on-the-fly formatting. Chordie does not index songs against artists'/composers' will. To remove this song please click here.

Text color:
Chord color:
Chord grids: 
Font size:    
Page size: 

A/E Amaj7sus2 Asus2 B B/F# B/G# C#msus2 C/E D/E E F# G G/E
Rate #1 of 7 versions

Jango Player

Login - add to songbook

SHARE PAGE  




You need to log in to post comments