Guitar Tabs, Chords and Lyrics
Major upgrade!! After one year development the new version of Chordie is now online! Please give feedback.


Where Did It All Go Wrong?  Oasis

Written by Noel Gallagher
Transcribed by David Lane (dlane@ihug.com.au)
CHORDS USED
[Em] [D] [Csus2] [A7sus4] [Em7] [G] [B7]  
 
 0--2---3-----0-----0--3--2-
 0--3---3-----3-----3--3--0-
 0--2---0-----0-----0--0--2-
 2--0---2-----2-----2--0--1-
 2------3-----0-----2--2--2-
 0------X-----X-----0--3--X-

RIFF 1
S S
 
 -------------------
 ----10----10-------
 /11----11----11\---
 -------------------
 -------------------
 -------------------

VERSE 1
[Em] You know that feeling you [D]get
[Em] You feel your older than [D]time
[Csus2] You aint exactly [D]sure
If you've been around a [Em]while[D]
VERSE 2
[Em] Do you the re[D]ciepts
[Em] For the friends that you [D]buy
[Csus2] And aint it bitter [D]sweet
You're only just getting [A7sus4]by[Csus2]
CHORUS
But I [Em]hope you know
That it [Em7]wont let go
It sticks a[D]round with you until the day you [A7sus4]die
And I [Em]hope you know
That its [Em7]touch and go
I hope the [D]tears dont stain the world that waits [A7sus4]outside
Where did it all go [Csus4]wrong?
Em / D (w/Riff 1) / Em / D (w/Riff 1)
VERSE 3
Em D (Riff 1)
And until youve repaid
Em D (Riff 1)
The dreams you've bought for your lies
[Csus2] You'll be cast a[D]way
Alone under stormy [A7sus4]skies[Csus2]
Alone under stormy [A7sus]skies[Csus2]
CHORUS
But I [Em]hope you know
That it [Em7]wont let go
It sticks [D]around with you until the day you [A7sus4]die
And I [Em]hope you know
That its [Em7]touch and go
I hope the [D]tears dont stain the world that waits [A7sus4]outside
Where did it all go wrong?
SOLO
[Csus2] BU BD [G] [D] H P [Em]S [Csus2] BU BD [G] [D] BU BD[Em]
 
 ----------------------------------------------------------------15-(17)-15----12---
 15-(17)-15----12-----------------------------15-(17)-15----12----------------------
 --------------------11-12-11-------------------------------------------------------
 -----------------------------12-14-12-12/14----------------------------------------
 -----------------------------------------------------------------------------------
 -----------------------------------------------------------------------------------

[Csus2] BU BD [G] [D] H P [Em]S [Csus2] [B7]
 
 --------------------------------------------------------------------------------------------------------------
 15-(17)-15----12----------------------------------------------------------------------------------------------
 --------------------11-12-11----------------------------2---2-(4)-2--0----0--2-0-2-(4)-0-2-0------------------
 -----------------------------12-14-12-12/14-----0----0-----------------2----------------------0-2-0-----------
 ----------------------------------------------2----2------------------------------------------------0-2-0-----
 -----------------------------------------------------------------------------------------------------------0--

OUTRO CHORUS
But I [Em]hope you know
That it [Em7]wont let go
It sticks a[D]round with you untill the day you [A7sus4]die
And I [Em]hope you know
That its [Em7]touch and go
I hope the [D]tears dont stain the world that waits [A7sus4]outside
(x2)
Where did it all go [Csus2]wrong?[/] [G] [/] [Em]

Important: The song above is NOT stored on the Chordie server. The original song is hosted at www.xguitar.com. Chordie works as a search engine and provides on-the-fly formatting. Chordie does not index songs against artists'/composers' will. To remove this song please click here.

Text color:
Chord color:
Chord grids: 
Font size:    
Page size: 

A7sus A7sus4 B7 Csus2 Csus4 D Em Em7 G
Rate #3 of 9 versions

Login - add to songbook

SHARE PAGE  




You need to log in to post comments