Guitar Tabs, Chords and Lyrics
Server problems seems to be fixed. Chordie has been experiencing problems with songs disappearing. These issues now seems to be fixed, but still verifying the fix. If you find anything strange, please email admin@chordie.com.


Who Feels Love?  Oasis

Written by Noel Gallagher
Transcribed by David Lane (dlane@ihug.com.au)
CHORDS USED
[G] [Bb6] [Am7] [Cadd9] [G/B]  
 
 3---X---0----3----3
 3---3---1----3----3
 0---0---0----0----0
 0---3---2----2----0
 2---1---0----3----2
 3---X---X----X----X

VERSE 1
[G]Found what I lost inside
[G]My spirit has been purified
[G]Take a thorn from my pride and
[G]Hand in hand we'll take a walk outside
CHORUS
[Bb6]Thank you for the sun, the one that [Am7]shines on everyone
Who [Cadd9]feels love[G/B]
Now [Bb6]there's a million years between my [Am7]fantasies and fears
I [G]feel love
VERSE 2
[G]Leaving all that I see
[G]Now all my emotions fill the air I breathe
CHORUS
[Bb6]Now you understand hat this [Am7]is not the promised land they [Cadd9]spoke of[G/B]
Theres [Bb6]nothing more to be if you could [Am7]be the remedy who [G]heals love
GUITAR BRIDGE
 
 ----3---------3---------3--------3---
 --3---------3---------3--------3-----
 0-----0------------------------------
 ---------3------3--2--------0--------
 -------------------------------------
 -------------------------------------

(x3, then;)
 
 ----3---------3---------3--------3--------3-------3---
 --3---------3---------3--------3--------3-------3-----
 0-----0-----------------------------------------------
 ---------3------3--2--------2--------1-------1--------
 ------------------------------------------------------
 ------------------------------------------------------

SOLO (OVER G Bb6 Am7)
 
 ---------------7--8--7--
 ---------6--8-----------
 4--5--7-----------------
 ------------------------
 ------------------------
 ------------------------

(x3)
SOLO 2 (OVER CHORUS CHORDS)
 
 E--10-10-10-10-10-10-10-10\8---
 B----------------------------8-

(x8, then over next chorus)
OUTRO CHORUS
Bb6 Am7Thank you for the sun, the one that shines on everyone
Who [Cadd9]feels love[G/B]
Now [Bb6]there's a million years between my [Am7]fantasies and fears
I f[Cadd9]eel love[G/B]
[Bb6]Thank you for the sun, the one that [Am7]shines on everyone
Who [Cadd9]feels love[G/B]
Now [Bb6]there's a million years between my [Am7]fantasies and fears
I [G]feel love
(REPEAT GUITAR BRIDGE TO FADE)

Important: The song above is NOT stored on the Chordie server. The original song is hosted at www.xguitar.com. Chordie works as a search engine and provides on-the-fly formatting. Chordie does not index songs against artists'/composers' will. To remove this song please click here.

Text color:
Chord color:
Chord grids: 
Font size:    
Page size: 

Am7 Bb6 Cadd9 G G/B
Rate #2 of 10 versions

Login - add to songbook

SHARE PAGE  



You need to log in to post comments