Guitar Tabs, Chords and Lyrics
Major upgrade!! After one year development the new version of Chordie is now online! Please give feedback.


The Drapery Falls  Opeth

As recorded by Opeth
From the 2001 Album BLACKWATER PARK
Words by Mikael Akerfeldt
Music by Opeth
2[Bbsus2/F#] 1 3 3 1 1 1[Bbsus2/F] 1 3 3 1 1 5 7 [Am]7 5 5 5 x [Bbsus2]1 3 3 1 1
6 8[Bbmadd9] 10 6 6 6 8 1[Cmadd9]0 12 8 8 8 x [Amadd9]0 7 5 0 x x[Amadd9/Eb] 6 7 5 0 x
Gtr I (E A D G B E) - 'Untitled'
Gtr II (E A D G B E) - 'Untitled'
Gtr III (E A D G B E) - 'Lead'
Gtr IV (E A D G B E) - 'Acoustic 1'
Gtr V (E A D G B E) - 'Acoustic II'
Gtr VI (E A D G B E) - 'Clean Lead'
Intro
Q.=64
6[Cmadd9]/8
Gtr V
E S S S S E S S S S E S S S S E S S S S
 
 |---------------------8--8--8--8-|----------------------8--8--8--8-|
 |------------------8--8--8--8--8-|------------------8---8--8--8--8-|
 |--8---8--8--8--8--8--8--8--8--8-|--8---8--8--8--8--8---8--8--8--8-|
 |-12--12-12-12-12-12-12-12-12-12-|-12--12-12-12-12-12--12-12-12-12-|
 |-10--10-10-10-10-10-10-10-10-10-|-10--10-10-10-10-10--10-10-10-10-|
 |--8---8--8--8--8--8--8--8--8--8-|--8---8--8--8--8--8---8--8--8--8-|

|
| Gtr III
| <
| H. Q. Q.
 
 |--------------------------------|---------------------------------|
 |--------------------------------|---------------------------------|
 |--------------------------------|-----------------12--------------|
 |--------------------------------|---------------------------------|
 |--------------------------------|---------------------------------|
 |--------------------------------|---------------------------------|

E S S S S E S S S S E S S S S E S S S S
 
 |----------------------8--8--8--8-|----------------------8--8--8--8-|
 |-------------------8--8--8--8--8-|-------------------8--8--8--8--8-|
 |---8---8--8--8--8--8--8--8--8--8-|---8---8--8--8--8--8--8--8--8--8-|
 |--12--12-12-12-12-12-12-12-12-12-|--12--12-12-12-12-12-12-12-12-12-|
 |--10--10-10-10-10-10-10-10-10-10-|--10--10-10-10-10-10-10-10-10-10-|
 |---8---8--8--8--8--8--8--8--8--8-|---8---8--8--8--8--8--8--8--8--8-|

|
| +H. +H.
 
 |---------------------------------|---------------------------------|
 |---------------------------------|---------------------------------|
 |-(12)----------------------------|-(12)----------------------------|
 |---------------------------------|---------------------------------|
 |---------------------------------|---------------------------------|
 |---------------------------------|---------------------------------|

|
| Gtrs I, II
| <
| H. H.
 
 |---------------------------------|---8-----------------------------|
 |---------------------------------|---8-----------------------------|
 |---------------------------------|---8-----------------------------|
 |---------------------------------|--12-----------------------------|
 |---------------------------------|--10-----------------------------|
 |---------------------------------|---8-----------------------------|

[Cmadd9]Gtr III
a H. +H.
 
 ||------------------------------------|---------------------------------|
 ||o-----------------------------------|---------------------------------|
 ||--10h12-----------------------------|-(12)----------------------------|
 ||------------------------------------|---------------------------------|
 ||o-----------------------------------|---------------------------------|
 ||------------------------------------|---------------------------------|

|
| Gtrs I, II
| E S S S S E S S S S E S S S S E S S S S
 
 ||----------------------8--8--8--8--8-|-------------------8--8--8--8--8-|
 ||o---------------------8--8--8--8--8-|-------------------8--8--8--8--8-|
 ||------8---8--8--8--8--8--8--8--8--8-|---8---8--8--8--8--8--8--8--8--8-|
 ||-----12--12-12-12-12-12-12-12-12-12-|--12--12-12-12-12-12-12-12-12-12-|
 ||o----10--10-10-10-10-10-10-10-10-10-|--10--10-10-10-10-10-10-10-10-10-|
 ||------8---8--8--8--8--8--8--8--8--8-|---8---8--8--8--8--8--8--8--8--8-|

a [Bbmadd9] Q. +Q E Q. +Q.
 
 |-------------------------------------|-----------------------------------|
 |-------------------------------------|-----------------------------------|
 |-12h13--------------(13)-------12----|-10--------------(10)--------------|
 |-------------------------------------|-----------------------------------|
 |-------------------------------------|-----------------------------------|
 |-------------------------------------|-----------------------------------|

|
| E S S S S E S S S S E S S S S E S S S S
 
 |----------------------6---6--6--6--6-|-------------------6---6--6--6--6--|
 |----------------------6---6--6--6--6-|-------------------6---6--6--6--6--|
 |-----6---6--6--6--6---6---6--6--6--6-|--6---6--6--6--6---6---6--6--6--6--|
 |----10--10-10-10-10--10--10-10-10-10-|-10--10-10-10-10--10--10-10-10-10--|
 |-----8---8--8--8--8---8---8--8--8--8-|--8---8--8--8--8---8---8--8--8--8--|
 |-----6---6--6--6--6---6---6--6--6--6-|--6---6--6--6--6---6---6--6--6--6--|

a Q. +Q E H.
 
 |-----------------------------------|----------------------------|
 |-----------------------------------|----------------------------|
 |-10h11-----------(11)--------10----|-8--------------------------|
 |-----------------------------------|----------------------------|
 |-----------------------------------|----------------------------|
 |-----------------------------------|----------------------------|

|
| S S S S S S S S S S S S S S S S S S S S S S S S
 
 |-----------------------------------|----------------------------|
 |-----------------------------------|----------------------------|
 |-----------6-6-6---8--8-8-10-10-10-|-------6-6-6-8-8-8-10-10-10-|
 |-----6-6-6-6-6-6---6--6-6--6--6--6-|-6-6-6-6-6-6-6-6-6--6--6--6-|
 |-----6-6-6-6-6-6---6--6-6--6--6--6-|-6-6-6-6-6-6-6-6-6--6--6--6-|
 |-----6h7-7-7-7-7---7--7-7--7--7--7-|-6h7-7-7-7-7-7-7-7--7--7--7-|

[Bbsus2]E Q [Bbsus2/F#] +Q. [Bbsus2/F] +H.[C5Db5]
 
 |-------------------------|---------------------------|
 |-------------------------|---------------------------|
 |-8S10-------(10)---------|-(10)----------------------|
 |-------------------------|---------------------------|
 |-------------------------|---------------------------|
 |-------------------------|---------------------------|

|
| E S S S S E S S S S E S S S S S S S S S S
 
 |-1--1-1-1-1---1--1-1-1-1-|---1--1-1-1-1--------------|
 |-1--1-1-1-1---1--1-1-1-1-|---1--1-1-1-1--------------|
 |-3--3-3-3-3---3--3-3-3-3-|---3--3-3-3-3-5S6-6-6-6-6--|
 |-3--3-3-3-3---3--3-3-3-3-|---3--3-3-3-3-5S6-6-6-6-6--|
 |-1--1-1-1-1---1--1-1-1-1-|---1--1-1-1-1-3S4-4-4-4-4--|
 |--------------2--2-2-2-2-|---1--1-1-1-1--------------|

[Cmadd9]Gtr III
a H. +H.
 
 |-----------------------------------|---------------------------------|
 |-----------------------------------|---------------------------------|
 |-10h12-----------------------------|-(12)----------------------------|
 |-----------------------------------|---------------------------------|
 |-----------------------------------|---------------------------------|
 |-----------------------------------|---------------------------------|

|
| Gtrs I, II
| E S S S S E S S S S E S S S S E S S S S
 
 |---------------------8--8--8--8--8-|-------------------8--8--8--8--8-|
 |---------------------8--8--8--8--8-|-------------------8--8--8--8--8-|
 |-----8---8--8--8--8--8--8--8--8--8-|---8---8--8--8--8--8--8--8--8--8-|
 |----12--12-12-12-12-12-12-12-12-12-|--12--12-12-12-12-12-12-12-12-12-|
 |----10--10-10-10-10-10-10-10-10-10-|--10--10-10-10-10-10-10-10-10-10-|
 |-----8---8--8--8--8--8--8--8--8--8-|---8---8--8--8--8--8--8--8--8--8-|

a [Bbmadd9] Q. +Q E Q. +Q.
 
 |-------------------------------------|------------------------------------|
 |-------------------------------------|------------------------------------|
 |-12h13--------------(13)-------12----|-10--------------(10)---------------|
 |-------------------------------------|------------------------------------|
 |-------------------------------------|------------------------------------|
 |-------------------------------------|------------------------------------|

|
| E S S S S E S S S S E S S S S E S S S S
 
 |----------------------6---6--6--6--6-|-------------------6---6--6--6--6---|
 |----------------------6---6--6--6--6-|-------------------6---6--6--6--6---|
 |-----6---6--6--6--6---6---6--6--6--6-|--6---6--6--6--6---6---6--6--6--6---|
 |----10--10-10-10-10--10--10-10-10-10-|-10--10-10-10-10--10--10-10-10-10---|
 |-----8---8--8--8--8---8---8--8--8--8-|--8---8--8--8--8---8---8--8--8--8---|
 |-----6---6--6--6--6---6---6--6--6--6-|--6---6--6--6--6---6---6--6--6--6---|

a Q. +Q E H.
 
 |-----------------------------------|----------------------------|
 |-----------------------------------|----------------------------|
 |-10h11-----------(11)--------10----|-8--------------------------|
 |-----------------------------------|----------------------------|
 |-----------------------------------|----------------------------|
 |-----------------------------------|----------------------------|

|
| S S S S S S S S S S S S S S S S S S S S S S S S
 
 |-----------------------------------|----------------------------|
 |-----------------------------------|----------------------------|
 |-----------6-6-6---8--8-8-10-10-10-|-------6-6-6-8-8-8-10-10-10-|
 |-----6-6-6-6-6-6---6--6-6--6--6--6-|-6-6-6-6-6-6-6-6-6--6--6--6-|
 |-----6-6-6-6-6-6---6--6-6--6--6--6-|-6-6-6-6-6-6-6-6-6--6--6--6-|
 |-----6h7-7-7-7-7---7--7-7--7--7--7-|-6h7-7-7-7-7-7-7-7--7--7--7-|

1.
[Bbsus2]E Q [Bbsus2/Gb]+Q. [Bbsus2/F]H.[C5Db5]
 
 |-----------------------|--------------------------||
 |-----------------------|-------------------------o||
 |-8S3-------(3)---------|-5------------------------||
 |-----------------------|--------------------------||
 |-----------------------|-------------------------o||
 |-----------------------|--------------------------||

|
| E S S S S E S S S S E S S S S S S S S S S
 
 |-1-1-1-1-1--1--1-1-1-1-|-1--1-1-1-1---------------||
 |-1-1-1-1-1--1--1-1-1-1-|-1--1-1-1-1--------------o||
 |-3-3-3-3-3--3--3-3-3-3-|-3--3-3-3-3-5S6-6-6-6-6---||
 |-3-3-3-3-3--3--3-3-3-3-|-3--3-3-3-3-5S6-6-6-6-6---||
 |-1-1-1-1-1--1--1-1-1-1-|-1--1-1-1-1-3S4-4-4-4-4--o||
 |------------2--2-2-2-2-|-1--1-1-1-1---------------||

2.
[Bbsus2/F] [Am] [Am]Gtr I
H. E S S S S E S S S S
 
 |------------------------||------------------------------------|
 |------------------------||o-10-10-10-10-10-10-----10-10-10-10-|
 |-5----------------------||------------------------------------|
 |------------------------||---7--7--7--7--7--7------7--7--7--7-|
 |------------------------||o-----------------------------------|
 |------------------------||------------------------------------|

|
| Gtr II
| E S S S S S S S S S S E S S S S S S E E
 
 |-1--1-1-1-1-5-5-5-5-----||------------------------------------|
 |-1--1-1-1-1-5-5-5-5-----||o-----------------------------------|
 |-3--3-3-3-3-5-5-5-5-----||---2--2--2--2--2--2-(2)--2----------|
 |-3--3-3-3-3-7-7-7-7-----||---2--2--2--2--2--2-(2)--2-----2----|
 |-1--1-1-1-1-7-7-7-7-----||o--0--0--0--0--0--2p=0---0-----2----|
 |-1--1-1-1-1-5-5-5-5-0-3-||------------------------------------|

[Cm]E S S S S E S S S S
 
 |-------------------------|
 |-8-8-8-8-8-8-----8-8-8-8-|
 |-------------------------|
 |-5-5-5-5-5-5-----5-5-5-5-|
 |-------------------------|
 |-------------------------|

|
| E S S S S S S E S S
 
 |-------------------------|
 |-------------------------|
 |-0-0-0-0-0-0-(0)-0---0-0-|
 |-1-1-1-1-1-1-(1)-1---1-1-|
 |-3-3-3-3-3-5p=3--3---3-3-|
 |-------------------------|

[Eb]Gtr I[D] [C] [Gbm] [Am]
>
E S S S S S S E S S E S S S S E S S S S 4x H. +H.
 
 |---------------------|----------------------||-5-------|-(5)----|
 |---------------------|---------------------o||-5-------|-(5)----|
 |-8-8-8-8-8-8S7-7-7-7-|-5-5-5-5-5-2-2-2-2-2--||-5-------|-(5)----|
 |---------------------|-----------4-4-4-4-4--||-7-------|-(7)----|
 |-6-6-6-6-6-6S5-5-5-5-|-3-3-3-3-3-4-4-4-4-4-o||-7-------|-(7)----|
 |---------------------|-----------2-2-2-2-2--||-5-------|-(5)----|

|
| Gtr II
| >
| E S S S S S S E S S E S S S S E S S S S 4x H. +H.
 
 |---------------------|----------------------||-5-------|-(5)----|
 |---------------------|---------------------o||-5-------|-(5)----|
 |-8-8-8-8-8-8S7-7-7-7-|-5-5-5-5-5-6-6-6-6-6--||-5-------|-(5)----|
 |---------------------|----------------------||-7-------|-(7)----|
 |-6-6-6-6-6-6S5-5-5-5-|-3-3-3-3-3-4-4-4-4-4-o||-7-------|-(7)----|
 |---------------------|----------------------||-5-------|-(5)----|

Verse
[Amadd9]Gtr IV[Amadd9]
E S S S S E S S S S E S S S S S S S S S S E S S S S E S S S S
 
 |-----------------------|-------------------------||-------------------------|
 |--0--0-0-0-0-0-0-0-0-0-|--0--0-0-0-0-7-7-7-8-8-8-||o--0--0-0-0-0-0--0-0-0-0-|
 |--5--5-5-5-5-5-5-5-5-5-|--5--5-5-5-5-5-5-5-5-5-5-||---5--5-5-5-5-5--5-5-5-5-|
 |--7--7-7-7-7-7-7-7-7-7-|--7--7-7-7-7-7-7-7-7-7-7-||---7--7-7-7-7-7--7-7-7-7-|
 |--0--0-0-0-0-0-0-0-0-0-|--6--6-6-6-6-6-6-6-6-6-6-||o--0--0-0-0-0-0--0-0-0-0-|
 |-----------------------|-------------------------||-------------------------|

|
| Gtrs I, II Gtr VI
| >
| +H. +H. Q. Q.
 
 |-(5)-------------------|-(5)---------------------||--^0---------------------|
 |-(5)-------------------|-(5)---------------------||o-^0---------------------|
 |-(5)-------------------|-(5)---------------------||--^5---------------------|
 |-(7)-------------------|-(7)---------------------||--^7---------------------|
 |-(7)-------------------|-(7)---------------------||o-^0---------------------|
 |-(5)-------------------|-(5)---------------------||-------------------------|

[Amadd9/Eb]E S S S S [Abm]S S S S S S [Asus2]E S S S S S S S S S S
 
 |------------4-4-4-4-4-4-|----------------------------|
 |-0--0-0-0-0-4-4-4-4-4-4-|-0--0-0-0-0-0-(0)--0--0-0-0-|
 |-5--5-5-5-5-4-4-4-4-4-4-|-2--2-2-2-2-2S=5---5--5-5-5-|
 |-7--7-7-7-7-6-6-6-6-6-6-|-2--2-2-2-2-2S=5---5--5-5-5-|
 |-6--6-6-6-6-6-6-6-6-6-6-|-0--0-0-0-0-0-(0)--0--0-0-0-|
 |------------4-4-4-4-4-4-|----------------------------|

|
| H. Q. S S +Q
 
 |------------------------|----------------------------|
 |------------------------|----------------------------|
 |------------------------|-2----------2S=5--(5)-------|
 |------------------------|----------------------------|
 |------------------------|----------------------------|
 |------------------------|----------------------------|

S S S S S S E S S S S
 
 |----------------------------|
 |-0-(0)--0--0-0-0-0--0-0-0-0-|
 |-5S=7---7--7-7-7-4--4-4-4-4-|
 |-5S=7---7--7-7-7-4--4-4-4-4-|
 |-0-(0)--0--0-0-0-0--0-0-0-0-|
 |----------------------------|

|
| S S +Q Q.
 
 |----------------------------|
 |----------------------------|
 |-5S=7--(7)-------4----------|
 |----------------------------|
 |----------------------------|
 |----------------------------|

E S S S S S S S S S S S S S S S S E S S S S
 
 |----------------------------|----------------------------|
 |-0--0-0-0-0-0-(0)--0--0-0-0-|-0-(0)--0--0-0-0-0--0-0-0-0-|
 |-2--2-2-2-2-2S=5---5--5-5-5-|-5S=7---7--7-7-7-6--6-6-6-6-|
 |-2--2-2-2-2-2S=5---5--5-5-5-|-5S=7---7--7-7-7-7--7-7-7-7-|
 |-0--0-0-0-0-0-(0)--0--0-0-0-|-0-(0)--0--0-0-0-0--0-0-0-0-|
 |----------------------------|----------------------------|

|
| Q. S S +Q S S +Q Q.
 
 |----------------------------|----------------------------|
 |----------------------------|----------------------------|
 |-2----------2S=5--(5)-------|-5S=7--(7)-------6----------|
 |----------------------------|----------------------------|
 |----------------------------|----------------------------|
 |----------------------------|----------------------------|

1.,2.,3.
[Amadd9]E S S S S E S S S S [Amadd9/Eb] E S S S S S S S S S S
 
 |----------------------|---------------------------||
 |-0--0-0-0-0-0-0-0-0-0-|--0--0-0-0-0-7-7-7-8-8-8--o||
 |-5--5-5-5-5-5-5-5-5-5-|--5--5-5-5-5-5-5-5-5-5-5---||
 |-7--7-7-7-7-7-7-7-7-7-|--7--7-7-7-7-7-7-7-7-7-7---||
 |-0--0-0-0-0-0-0-0-0-0-|--6--6-6-6-6-6-6-6-6-6-6--o||
 |----------------------|---------------------------||

|
| >
| H. +H.
 
 |----------------------|---------------------------||
 |----------------------|--------------------------o||
 |-5--------------------|-(5)-----------------------||
 |----------------------|---------------------------||
 |----------------------|--------------------------o||
 |----------------------|---------------------------||

Pre-Chorus
4.
$ To Coda
[Dm]Gtrs I, II[G] [Am] [Em] [F] [F] [E]
E S S S S E S S S S E. E. E S S S S S S S S S S S S S S S S
 
 |-5-5-5-5-5-3-3-3-3-3-|-----------------|--------------------------|
 |-6-6-6-6-6-3-3-3-3-3-|-1---------------|-6-6-6-6-6-6-8-8-8-8-8-8--|
 |-7-7-7-7-7-4-4-4-4-4-|-2--0--2-2-2-2-2-|-5-5-5-5-5-5-7-7-7-7-7-7--|
 |-7-7-7-7-7-5-5-5-5-5-|-2--2--3-3-3-3-3-|-7-7-7-7-7-7-9-9-9-9-9-9--|
 |-5-5-5-5-5-5-5-5-5-5-|-0--2--3-3-3-3-3-|-------------7-7-7-7-7-7--|
 |-----------3-3-3-3-3-|----0--1-1-1-1-1-|-------------0-0-0-0-0-0--|

[Amadd9]>[Amadd9/Eb]
H. +H.
 
 |-5--------------------|-(5)---------------------|
 |-5--------------------|-(5)---------------------|
 |-5--------------------|-(5)---------------------|
 |-7--------------------|-(7)---------------------|
 |-7--------------------|-(7)---------------------|
 |-5--------------------|-(5)---------------------|

|
| Gtr IV
| E S S S S E S S S S E S S S S S S S S S S
 
 |----------------------|-------------------------|
 |-0--0-0-0-0-0-0-0-0-0-|--0--0-0-0-0-7-7-7-8-8-8-|
 |-5--5-5-5-5-5-5-5-5-5-|--5--5-5-5-5-5-5-5-5-5-5-|
 |-7--7-7-7-7-7-7-7-7-7-|--7--7-7-7-7-7-7-7-7-7-7-|
 |-0--0-0-0-0-0-0-0-0-0-|--6--6-6-6-6-6-6-6-6-6-6-|
 |----------------------|-------------------------|

[Amadd9]Gtr IV
E S S S S E S S S S
 
 ||-------------------------|
 ||o--0--0-0-0-0-0--0-0-0-0-|
 ||---5--5-5-5-5-5--5-5-5-5-|
 ||---7--7-7-7-7-7--7-7-7-7-|
 ||o--0--0-0-0-0-0--0-0-0-0-|
 ||-------------------------|

|
| Gtr VI
| Q. Q.
 
 ||--^0---------------------|
 ||o-^0---------------------|
 ||--^5---------------------|
 ||--^7---------------------|
 ||o-^0---------------------|
 ||-------------------------|

[Amadd9/Eb]E S S S S [Abm]S S S S S S [Asus2]E S S S S S S S S S S
 
 |------------4-4-4-4-4-4-|---------------------------|
 |-0--0-0-0-0-4-4-4-4-4-4-|-0-0-0--0-0--0-(0)-0-0-0-0-|
 |-5--5-5-5-5-4-4-4-4-4-4-|-2-2-2--2-2--2S=5--5-5-5-5-|
 |-7--7-7-7-7-6-6-6-6-6-6-|-2-2-2--2-2--2S=5--5-5-5-5-|
 |-6--6-6-6-6-6-6-6-6-6-6-|-0-0-0--0-0--0-(0)-0-0-0-0-|
 |------------4-4-4-4-4-4-|---------------------------|

|
| H. Q E Q.
 
 |------------------------|---------------------------|
 |------------------------|---------------------------|
 |------------------------|---------------------------|
 |------------------------|-------12S==10S============|
 |------------------------|---------------------------|
 |------------------------|---------------------------|

S S S S S S E S S S S
 
 |--------------------------|
 |-0-(0)-0-0-0-0-0--0-0-0-0-|
 |-5S=7--7-7-7-7-4--4-4-4-4-|
 |-5S=7--7-7-7-7-4--4-4-4-4-|
 |-0-(0)-0-0-0-0-0--0-0-0-0-|
 |--------------------------|

|
| Q. Q.
 
 |--------------------------|
 |--------------------------|
 |--------------------------|
 |-9S============7----------|
 |--------------------------|
 |--------------------------|

E S S S S S S S S S S S S S S S S E S S S S
 
 |---------------------------|--------------------------|
 |-0-0-0--0-0--0-(0)-0-0-0-0-|-0-(0)-0-0-0-0-0--0-0-0-0-|
 |-2-2-2--2-2--2S=5--5-5-5-5-|-5S=7--7-7-7-7-6--6-6-6-6-|
 |-2-2-2--2-2--2S=5--5-5-5-5-|-5S=7--7-7-7-7-7--7-7-7-7-|
 |-0-0-0--0-0--0-(0)-0-0-0-0-|-0-(0)-0-0-0-0-0--0-0-0-0-|
 |---------------------------|--------------------------|

|
| Q E Q. Q. Q.
 
 |---------------------------|--------------------------|
 |---------------------------|--------------------------|
 |---------------------------|--------------------------|
 |-------12S==10S============|=9S============7----------|
 |---------------------------|--------------------------|
 |---------------------------|--------------------------|

[Amadd9]E S S S S E S S S S [Amadd9/Eb]E S S S S S S S S S S
 
 |----------------------|-------------------------||
 |-0--0-0-0-0-0-0-0-0-0-|-0--0-0-0-0-7-7-7-8-8-8-o||
 |-5--5-5-5-5-5-5-5-5-5-|-5--5-5-5-5-5-5-5-5-5-5--||
 |-7--7-7-7-7-7-7-7-7-7-|-7--7-7-7-7-7-7-7-7-7-7--||
 |-0--0-0-0-0-0-0-0-0-0-|-6--6-6-6-6-6-6-6-6-6-6-o||
 |----------------------|-------------------------||

|
| H. H.
 
 |----------------------|-------------------------||
 |----------------------|------------------------o||
 |----------------------|-------------------------||
 |----------------------|-------------------------||
 |----------------------|------------------------o||
 |----------------------|-------------------------||

[Amadd9] E S S S S E S S S S
 
 |-||--------------------------|
 |-||o--0--0-0-0-0-0--0-0-0-0--|
 |-||---5--5-5-5-5-5--5-5-5-5--|
 |-||---7--7-7-7-7-7--7-7-7-7--|
 |-||o--0--0-0-0-0-0--0-0-0-0--|
 |-||--------------------------|

|
| Q. Q.
 
 |-||--^0----------------------|
 |-||o-^0----------------------|
 |-||--^5----------------------|
 |-||--^7----------------------|
 |-||o-^0----------------------|
 |-||--------------------------|

[Amadd9/Eb]E S S S S [Abm]S S S S S S [Asus2]E S S S S S S S S S S
 
 |------------4-4-4-4-4-4-|----------------------------|
 |-0--0-0-0-0-4-4-4-4-4-4-|-0--0-0-0-0-0-(0)--0--0-0-0-|
 |-5--5-5-5-5-4-4-4-4-4-4-|-2--2-2-2-2-2S=5---5--5-5-5-|
 |-7--7-7-7-7-6-6-6-6-6-6-|-2--2-2-2-2-2S=5---5--5-5-5-|
 |-6--6-6-6-6-6-6-6-6-6-6-|-0--0-0-0-0-0-(0)--0--0-0-0-|
 |------------4-4-4-4-4-4-|----------------------------|

|
| H. Q. S S +Q
 
 |------------------------|----------------------------|
 |------------------------|----------------------------|
 |------------------------|-2----------2S=5--(5)-------|
 |------------------------|----------------------------|
 |------------------------|----------------------------|
 |------------------------|----------------------------|

S S S S S S E S S S S
 
 |----------------------------|
 |-0-(0)--0--0-0-0-0--0-0-0-0-|
 |-5S=7---7--7-7-7-4--4-4-4-4-|
 |-5S=7---7--7-7-7-4--4-4-4-4-|
 |-0-(0)--0--0-0-0-0--0-0-0-0-|
 |----------------------------|

|
| S S +Q Q.
 
 |----------------------------|
 |----------------------------|
 |-5S=7--(7)-------4----------|
 |----------------------------|
 |----------------------------|
 |----------------------------|

D.S. al Coda
E S S S S S S S S S S S S S S S S E S S S S
 
 |----------------------------|----------------------------|
 |-0--0-0-0-0-0-(0)--0--0-0-0-|-0-(0)--0--0-0-0-0--0-0-0-0-|
 |-2--2-2-2-2-2S=5---5--5-5-5-|-5S=7---7--7-7-7-6--6-6-6-6-|
 |-2--2-2-2-2-2S=5---5--5-5-5-|-5S=7---7--7-7-7-7--7-7-7-7-|
 |-0--0-0-0-0-0-(0)--0--0-0-0-|-0-(0)--0--0-0-0-0--0-0-0-0-|
 |----------------------------|----------------------------|

|
| Q. S S +Q S S +Q Q.
 
 |----------------------------|----------------------------|
 |----------------------------|----------------------------|
 |-2----------2S=5--(5)-------|-5S=7--(7)-------6----------|
 |----------------------------|----------------------------|
 |----------------------------|----------------------------|
 |----------------------------|----------------------------|

[Amadd9]E S S S S E S S S S [Amadd9/Eb] E S S S S S S S S S S
 
 |----------------------|---------------------------||
 |-0--0-0-0-0-0-0-0-0-0-|--0--0-0-0-0-7-7-7-8-8-8--o||
 |-5--5-5-5-5-5-5-5-5-5-|--5--5-5-5-5-5-5-5-5-5-5---||
 |-7--7-7-7-7-7-7-7-7-7-|--7--7-7-7-7-7-7-7-7-7-7---||
 |-0--0-0-0-0-0-0-0-0-0-|--6--6-6-6-6-6-6-6-6-6-6--o||
 |----------------------|---------------------------||

|
| >
| H. +H.
 
 |----------------------|---------------------------||
 |----------------------|--------------------------o||
 |-5--------------------|-(5)-----------------------||
 |----------------------|---------------------------||
 |----------------------|--------------------------o||
 |----------------------|---------------------------||

Chorus
&
[Dbm]Gtrs I, II[Dbm/Ab] [G] [Bm]
E S S S S E S S S S E S S S S E S S S S E S S S S E S S S S
 
 ||--4-4-4-4-4-4-4-4-4-4-|-3-3-3-3-3-3-3-3-3-3-|-2-2-2-2-2-2-2-2-2-2-|
 ||o-5-5-5-5-5-5-5-5-5-5-|-3-3-3-3-3-3-3-3-3-3-|-3-3-3-3-3-3-3-3-3-3-|
 ||--6-6-6-6-6-6-6-6-6-6-|-4-4-4-4-4-4-4-4-4-4-|-4-4-4-4-4-4-4-4-4-4-|
 ||--6-6-6-6-6-6-6-6-6-6-|-5-5-5-5-5-5-5-5-5-5-|-4-4-4-4-4-4-4-4-4-4-|
 ||o-4-4-4-4-4-4-4-4-4-4-|-5-5-5-5-5-5-5-5-5-5-|-2-2-2-2-2-2-2-2-2-2-|
 ||------------4-4-4-4-4-|-3-3-3-3-3-3-3-3-3-3-|---------------------|

Guitar Solo
[Dbm]Gtr III[Dbm/Ab]
S S S S S S E S S S S 4x Q a E Q.
 
 |-2-(2)-2-2-2-2-2-2-2-2-2--||---------------------------|
 |-2h=3--3-3-3-3-3-3-3-3-3-o||---------------------------|
 |-4-(4)-4-4-4-4-4-4-4-4-4--||-/9-----9S11---------------|
 |-4-(4)-4-4-4-4-4-4-4-4-4--||---------------11----------|
 |-2-(2)-2-2-2-2-2-2-2-2-2-o||---------------------------|
 |--------------------------||---------------------------|

|
| Gtrs I, II
| H. 4x E S S S S E S S S S
 
 |--------------------------||--4-4-4----4-4--4--4-4-4-4-|
 |-------------------------o||--5-5-5----5-5--5--5-5-5-5-|
 |--------------------------||--6-6-6----6-6--6--6-6-6-6-|
 |--------------------------||--6-6-6----6-6--6--6-6-6-6-|
 |-------------------------o||--4-4-4----4-4--4--4-4-4-4-|
 |--------------------------||----------------4--4-4-4-4-|

[G] Q. S S S S S S
 
 |----------------------------|
 |----------------------------|
 |----------------------------|
 |-12----------11h12p11-9-----|
 |------------------------9-7-|
 |----------------------------|

|
| E S S S S E S S S S
 
 |--3--3-3-3-3--3-----3-3-3-3-|
 |--3--3-3-3-3--3-----3-3-3-3-|
 |--4--4-4-4-4--4-----4-4-4-4-|
 |--5--5-5-5-5--5-----5-5-5-5-|
 |--5--5-5-5-5--5-----5-5-5-5-|
 |--3--3-3-3-3--3-----3-3-3-3-|

[Bm] ~~~~~~~~~~~~~~~~~~
a H +E S S E H +E
 
 |-------------------------|----------------------------|
 |-------------------------|----------------------------|
 |-------------------------|----------------------------|
 |-------------------------|----------------------------|
 |-7s9-----------(9)---7h9-|----------------------------|
 |-------------------------|-10-----9-------------(9)---|

|
| E S S S S E S S S S S S S S S S E S S S S
 
 |---2-2-2-2-2-2--2--2-2-2-|--2-(2)-2-2-2-2-2-2-2--2--2-|
 |---3-3-3-3-3-3--3--3-3-3-|--2h=3--3-3-3-3-3-3-3--3--3-|
 |---4-4-4-4-4-4--4--4-4-4-|--4-(4)-4-4-4-4-4-4-4--4--4-|
 |---4-4-4-4-4-4--4--4-4-4-|--4-(4)-4-4-4-4-4-4-4--4--4-|
 |---2-2-2-2-2-2--2--2-2-2-|--2-(2)-2-2-2-2-2-2-2--2--2-|
 |-------------------------|----------------------------|

[Dbm] Q a E [Dbm/Ab] Q.
 
 |---------------------------|
 |---------------------------|
 |-/9-----9S11---------------|
 |---------------11----------|
 |---------------------------|
 |---------------------------|

|
| E S S S S E S S S S
 
 |--4-4-4----4-4--4--4-4-4-4-|
 |--5-5-5----5-5--5--5-5-5-5-|
 |--6-6-6----6-6--6--6-6-6-6-|
 |--6-6-6----6-6--6--6-6-6-6-|
 |--4-4-4----4-4--4--4-4-4-4-|
 |----------------4--4-4-4-4-|

[G] Q. S S S S S S
 
 |----------------------------|
 |----------------------------|
 |----------------------------|
 |-12----------11h12p11-9-----|
 |------------------------9-7-|
 |----------------------------|

|
| E S S S S E S S S S
 
 |--3--3-3-3-3--3-----3-3-3-3-|
 |--3--3-3-3-3--3-----3-3-3-3-|
 |--4--4-4-4-4--4-----4-4-4-4-|
 |--5--5-5-5-5--5-----5-5-5-5-|
 |--5--5-5-5-5--5-----5-5-5-5-|
 |--3--3-3-3-3--3-----3-3-3-3-|

[Bm]~~~~~~~~~~~~~~~~~~~~~~~~~~~
a H. +H.
 
 |------------------------|--------------------------|
 |------------------------|--------------------------|
 |------------------------|--------------------------|
 |------------------------|--------------------------|
 |-7S9--------------------|-(9)----------------------|
 |------------------------|--------------------------|

|
| E S S S S E S S S S S S S S S S E S S S S
 
 |---2--2-2-2-2-2-2-2-2-2-|--2-(2)-2-2-2-2-2-2-2-2-2-|
 |---3--3-3-3-3-3-3-3-3-3-|--2h=3--3-3-3-3-3-3-3-3-3-|
 |---4--4-4-4-4-4-4-4-4-4-|--4-(4)-4-4-4-4-4-4-4-4-4-|
 |---4--4-4-4-4-4-4-4-4-4-|--4-(4)-4-4-4-4-4-4-4-4-4-|
 |---2--2-2-2-2-2-2-2-2-2-|--2-(2)-2-2-2-2-2-2-2-2-2-|
 |------------------------|--------------------------|

[Dbm]S S S S S S [Dbm/Ab] T T S S S S S
 
 |--------------------------------|
 |--------------------------------|
 |--------------------------------|
 |---------9-11-11h12p11-9-11-7-9-|
 |-----7-9------------------------|
 |-7-9----------------------------|

|
| E S S S S E S S S S
 
 |-4---4-4-4--4--4-------4--4-4-4-|
 |-5---5-5-5--5--5-------5--5-5-5-|
 |-6---6-6-6--6--6-------6--6-6-6-|
 |-6---6-6-6--6--6-------6--6-6-6-|
 |-4---4-4-4--4--4-------4--4-4-4-|
 |---------------4-------4--4-4-4-|

[G] S S S S S S S S S S S S [Bm]S S S S S S S S S S S S
 
 |--------------------------------|------------------------------|
 |--------------------------------|------------------------------|
 |-------9-11-9-------------------|------------------------------|
 |-11-12--------12-11-12-9-11-7-9-|------------------------------|
 |--------------------------------|-9-10-7-9---------------------|
 |--------------------------------|----------10-12-9-10-9-7-9-10-|

|
| E S S S S E S S S S E S S S S E S S S S
 
 |--3----3--3-3--3--3----3--3-3-3-|-2----2-2--2--2-2----2-2-2--2-|
 |--3----3--3-3--3--3----3--3-3-3-|-3----3-3--3--3-3----3-3-3--3-|
 |--4----4--4-4--4--4----4--4-4-4-|-4----4-4--4--4-4----4-4-4--4-|
 |--5----5--5-5--5--5----5--5-5-5-|-4----4-4--4--4-4----4-4-4--4-|
 |--5----5--5-5--5--5----5--5-5-5-|-2----2-2--2--2-2----2-2-2--2-|
 |--3----3--3-3--3--3----3--3-3-3-|------------------------------|

S S S S S S S S S S S S
 
 |----------------------------------|
 |----------------------------------|
 |----------------------------------|
 |--------------------------9-11-12-|
 |----------------9-12-9-12---------|
 |-9-10--12-10-12-------------------|

|
| S S S S S S E S S S S
 
 |-2-(2)--2--2--2-2--2----2-2--2--2-|
 |-2h=3---3--3--3-3--3----3-3--3--3-|
 |-4-(4)--4--4--4-4--4----4-4--4--4-|
 |-4-(4)--4--4--4-4--4----4-4--4--4-|
 |-2-(2)--2--2--2-2--2----2-2--2--2-|
 |----------------------------------|

[Dbm] ~~~~~~~~~~~~~[Dbm/Ab]~~ [G]~~~~~~~~~~
Q +E Q E a Q +E S S S S S S
 
 |--------------------------|----------------------------|
 |--------------------------|----------------------------|
 |-/11-----(11)---9-----6---|-6S7-----(7)---6h7p6--------|
 |--------------------------|---------------------9-7-9--|
 |--------------------------|----------------------------|
 |--------------------------|----------------------------|

|
| E S S S S E S S S S E S S S S E S S S S
 
 |---4-4-4---4--4-4-4-4-4-4-|---3-3-3--3--3-3---3-3-3-3--|
 |---5-5-5---5--5-5-5-5-5-5-|---3-3-3--3--3-3---3-3-3-3--|
 |---6-6-6---6--6-6-6-6-6-6-|---4-4-4--4--4-4---4-4-4-4--|
 |---6-6-6---6--6-6-6-6-6-6-|---5-5-5--5--5-5---5-5-5-5--|
 |---4-4-4---4--4-4-4-4-4-4-|---5-5-5--5--5-5---5-5-5-5--|
 |----------------4-4-4-4-4-|---3-3-3--3--3-3---3-3-3-3--|

Bridge
[Bm]~ ~~~~~~~~~~~~~~~~~~~~[E] [Db] [B] [Eb]
E S S a H +H. H.
 
 |-----------------------|--------------------------||----------------------|
 |-----------------------|--------------------------||o---------------------|
 |-----------------------|--------------------------||----------------------|
 |-----------------------|--------------------------||----------------------|
 |-7-5-7-7S9-------------|-(9)----------------------||o---------------------|
 |-----------------------|--------------------------||----------------------|

|
| E S S S S E S S S S S S S S S S E S S S S S S S E S E S E S
 
 |-2-2-2---2-2-2-2-2-2-2-|--2-(2)-2-2-2-2-2-2-2-2-2-||----------------------|
 |-3-3-3---3-3-3-3-3-3-3-|--2h=3--3-3-3-3-3-3-3-3-3-||o---------------------|
 |-4-4-4---4-4-4-4-4-4-4-|--4-(4)-4-4-4-4-4-4-4-4-4-||----------------------|
 |-4-4-4---4-4-4-4-4-4-4-|--4-(4)-4-4-4-4-4-4-4-4-4-||--6-(6)-6-------------|
 |-2-2-2---2-2-2-2-2-2-2-|--2-(2)-2-2-2-2-2-2-2-2-2-||o-6h=7--7-7-7-6-6-6-6-|
 |-----------------------|--------------------------||----------9-9-7-7-6-6-|

[G] [E] [Db] [B] [Eb] [Bm]|-3-|
E S S S S S S S S S S S S S E S E S E S S S S S S S S S S E E 4x
 
 |-----------------------|---------------------|------------------------||
 |-----------------------|---------------------|-----------------------o||
 |-4-4-4-4-4-4-4-4-4-4-4-|---------------------|------------------------||
 |-5-5-5-5-5-5-5-5-5-5-5-|-6-(6)-6-------------|------------------------||
 |-5-5-5-5-5-5-5-5-5-5-5-|-6h=7--7-7-7-6-6-6-6-|-4h5p4---4-----4h5-----o||
 |-3-3-3-3-3-0h3-3-3-3-3-|---------9-9-7-7-6-6-|-------7---5-7-----7-7--||

N.C.
5/8
Gtr I
E S S S S E. E. 8x S S S S S S S S S S 4x
 
 ||--------------------||-||-----------------------||
 ||o-9-9-9-9-9-9--12--o||-||o---------------------o||
 ||--7-7-7-7-7-7--10---||-||-----------------------||
 ||--6-6-6-6-6-6---9---||-||------3---------3------||
 ||o------------------o||-||o---2-----3---2-----3-o||
 ||--------------------||-||--1-----2---1-----2----||

|
| Gtr II
| E S S S S E. E. 8x S S S S S S S S S S 4x
 
 ||--------------------||-||-----------------------||
 ||o------------------o||-||o---------------------o||
 ||--------------------||-||-----------------------||
 ||--6-6-6-6-6-5---2---||-||------3---------3------||
 ||o-5-5-5-5-5-4---1--o||-||o---2-----3---2-----3-o||
 ||--4-4-4-4-4-3---0---||-||--1-----2---1-----2----||

S S S S S S S S S S 4x
 
 |-||-------------------------||
 |-||o-----------------------o||
 |-||-------------------------||
 |-||-------4----------4------||
 |-||o----3-----4----3-----4-o||
 |-||--2------3---2------3----||

|
| E. E E. E 4x
 
 |-||-------------------------||
 |-||o-----------------------o||
 |-||-------------------------||
 |-||--3------4---3------4----||
 |-||o-2------3---2------3---o||
 |-||--1------2---1------2----||

"Russian Riff"
6[F]/8 [G] [A] [B] 5[A]/8
E. E. E. E. S S S S E E E
 
 |---------------||--8-8-8-8-----8---8---|
 |-6--8--10--12--||o-5-5-5-5-----5---5---|
 |---------------||--5-5-5-5-----5---5---|
 |---------------||----------------------|
 |---------------||o---------------------|
 |---------------||----------------------|

|
| E. E. E. E. S S S S S S S S S S
 
 |---------------||----------------------|
 |---------------||o---------------------|
 |---------------||--5-5-5-5-5-5-5-5-5-5-|
 |-3--5---7---9--||--7-7-7-7-7-7-7-7-7-7-|
 |---------------||o-------7-7-7-----7-7-|
 |-1--3---5---7--||----------------------|

S S S S E E E [E]S S S S E S S S S
 
 |-8-8-8-8-----8---8---|-7-7-7-7-----7-7-7-7-|
 |-5-5-5-5-----5---5---|-5-5-5-5-----5-5-4-4-|
 |-5-5-5-5-----5---5---|-4-4-4-4-----4-4-4-4-|
 |---------------------|---------------------|
 |---------------------|---------------------|
 |---------------------|---------------------|

|
| S S S S S S S S S S S S S S S S S S S S
 
 |---------------------|---------------------|
 |---------------------|---------------------|
 |-5-5-5-5-5-5-5-5-5-5-|-4-4-4-4-4-4-4-4-4-4-|
 |-7-7-7-7-7-7-7-7-7-7-|-6-6-6-6-6-6-6-6-6-6-|
 |-------7-7-7-----7-7-|-------7-7-7-----7-7-|
 |---------------------|---------------------|

6/8 5/8
S S S S S S S S S E. 3x S S S S E E E
 
 |---------------------------------||-||---8-8-8-8-----8-----8----|
 |--------------------------------o||-||o--5-5-5-5-----5-----5----|
 |--7--7-7-9-9-9-13-13-13-14-------||-||---5-5-5-5-----5-----5----|
 |---------------------------------||-||--------------------------|
 |--5--5-5-7-7-7-11-11-11-12------o||-||o-------------------------|
 |---------------------------------||-||--------------------------|

|
| S S S S S S S S S S S S 3x S S S S S S S S S S
 
 |---------------------------------||-||--------------------------|
 |--------------------------------o||-||o-------------------------|
 |--7--7-7-7-7-7--4--4--4--4--4-4--||-||---5-5-5-5-5-5-5-5---5--5-|
 |---------------------------------||-||---7-7-7-7-7-7-7-7---7--7-|
 |--5--5-5-5-5-5--2--2--2--2--2-2-o||-||o--------7-7-7-------7--7-|
 |---------------------------------||-||--------------------------|

|
| Gtr III
| <
| H. 3x H +E
 
 |-16------------------------------||-||--20---------------(20)---|
 |--------------------------------o||-||o-------------------------|
 |---------------------------------||-||--------------------------|
 |---------------------------------||-||--------------------------|
 |--------------------------------o||-||o-------------------------|
 |---------------------------------||-||--------------------------|

S S S S E E E S S S S E S S S S
 
 |---8--8-8-8-----8----8---|---7--7-7-7-----7-7--7-7---|
 |---5--5-5-5-----5----5---|---5--5-5-5-----5-5--4-4---|
 |---5--5-5-5-----5----5---|---4--4-4-4-----4-4--4-4---|
 |-------------------------|---------------------------|
 |-------------------------|---------------------------|
 |-------------------------|---------------------------|

|
| S S S S S S S S S S S S S S S S S S S S
 
 |-------------------------|---------------------------|
 |-------------------------|---------------------------|
 |---5--5-5-5-5-5-5-5--5-5-|---4--4-4-4-4-4-4-4--4-4---|
 |---7--7-7-7-7-7-7-7--7-7-|---6--6-6-6-6-6-6-6--6-6---|
 |----------7-7-7------7-7-|----------7-7-7------7-7---|
 |-------------------------|---------------------------|

|
| +H E +H E
 
 |-(20)---------------19---|-(19)---------------16-----|
 |-------------------------|---------------------------|
 |-------------------------|---------------------------|
 |-------------------------|---------------------------|
 |-------------------------|---------------------------|
 |-------------------------|---------------------------|

1.
6/8 5/8
S S S S S S S S S E. S S S S E E E
 
 |---------------------------------|--8-8-8-8-----8-----8----|
 |---------------------------------|--5-5-5-5-----5-----5----|
 |---7--7-7-9-9-9-13-13-13-14------|--5-5-5-5-----5-----5----|
 |---------------------------------|-------------------------|
 |---5--5-5-7-7-7-11-11-11-12------|-------------------------|
 |---------------------------------|-------------------------|

|
| S S S S S S S S S S S S S S S S S S S S S S
 
 |---------------------------------|-------------------------|
 |---------------------------------|-------------------------|
 |---7--7-7-7-7-7--4--4--4--4--4-4-|--5-5-5-5-5-5-5-5---5--5-|
 |---------------------------------|--7-7-7-7-7-7-7-7---7--7-|
 |---5--5-5-5-5-5--2--2--2--2--2-2-|--------7-7-7-------7--7-|
 |---------------------------------|-------------------------|

|
| +H. H +E
 
 |-(16)----------------------------|-20---------------(20)---|
 |---------------------------------|-------------------------|
 |---------------------------------|-------------------------|
 |---------------------------------|-------------------------|
 |---------------------------------|-------------------------|
 |---------------------------------|-------------------------|

S S S S E E E S S S S E S S S S
 
 |---8--8-8-8-----8----8---|---7--7-7-7-----7-7--7-7----|
 |---5--5-5-5-----5----5---|---5--5-5-5-----5-5--4-4----|
 |---5--5-5-5-----5----5---|---4--4-4-4-----4-4--4-4----|
 |-------------------------|----------------------------|
 |-------------------------|----------------------------|
 |-------------------------|----------------------------|

|
| S S S S S S S S S S S S S S S S S S S S
 
 |-------------------------|----------------------------|
 |-------------------------|----------------------------|
 |---5--5-5-5-5-5-5-5--5-5-|---4--4-4-4-4-4-4-4--4-4----|
 |---7--7-7-7-7-7-7-7--7-7-|---6--6-6-6-6-6-6-6--6-6----|
 |----------7-7-7------7-7-|----------7-7-7------7-7----|
 |-------------------------|----------------------------|

|
| +H E +H E
 
 |-(20)---------------16---|-(16)---------------19------|
 |-------------------------|----------------------------|
 |-------------------------|----------------------------|
 |-------------------------|----------------------------|
 |-------------------------|----------------------------|
 |-------------------------|----------------------------|

2.
6[D]/8[Db] [G]
Gtrs I, II
S S S S S S S S S E. E S S S S E E E E S S S S E E E
 
 |----------------------------------||-------------------|---------------------|
 |---------------------------------o||-------------------|---------------------|
 |---7--7-7-9-9-9-13-13-13-14-------||-------------------|---------------------|
 |----------------------------------||--6--6-6-6-6-6-6-6-|---5--5-5-5-5-5-5-5--|
 |---5--5-5-7-7-7-11-11-11-12------o||--6--6-6-6-6-6-6-6-|---5--5-5-5-5-5-5-5--|
 |----------------------------------||--4--4-4-4-4-0-4-0-|---3--3-3-3-3-0-3-0--|

|
| S S S S S S S S S S S S H. H.
 
 |----------------------------------||-------------------|---------------------|
 |---------------------------------o||-------------------|---------------------|
 |---7--7-7-7-7-7--4--4--4--4--4-4--||-------------------|---------------------|
 |----------------------------------||-------------------|---------------------|
 |---5--5-5-5-5-5--2--2--2--2--2-2-o||-------------------|---------------------|
 |----------------------------------||-------------------|---------------------|

|
| Gtr III
| +H. H. H.
 
 |-(19)-----------------------------||-20----------------|-(20)----------------|
 |---------------------------------o||-------------------|---------------------|
 |----------------------------------||-------------------|--17-----------------|
 |----------------------------------||-------------------|---------------------|
 |---------------------------------o||-------------------|---------------------|
 |----------------------------------||-------------------|---------------------|

E E S S S S S S S S E E S S S S S S S S
 
 |------------------------|------------------------|
 |------------------------|------------------------|
 |------------------------|------------------------|
 |---4--4-x-x-4-4-4-4-4-4-|---4--4-x-x-4-4-4-4-4-4-|
 |---4--4-x-x-4-4-4-4-4-4-|---4--4-x-x-4-4-4-4-4-4-|
 |---2--2-x-x-0-2-2-3-2-0-|---2--2-x-x-0-2-2-3-2-0-|

|
| Gtr III
| +H. +H.
 
 |-(20)-------------------|-(20)-------------------|
 |------------------------|------------------------|
 |-(17)-------------------|-(17)-------------------|
 |------------------------|------------------------|
 |------------------------|------------------------|
 |------------------------|------------------------|

E S S S S E E E E S S S S E E E
 
 |-------------------|--------------------|
 |-------------------|--------------------|
 |-------------------|--------------------|
 |--6--6-6-6-6-6-6-6-|---5--5-5-5-5-5-5-5-|
 |--6--6-6-6-6-6-6-6-|---5--5-5-5-5-5-5-5-|
 |--4--4-4-4-4-0-4-0-|---3--3-3-3-3-0-3-0-|

|
| H. +H.
 
 |-20----------------|-(20)---------------|
 |-------------------|--------------------|
 |-17----------------|-(17)---------------|
 |-------------------|--------------------|
 |-------------------|--------------------|
 |-------------------|--------------------|

E E S S S S S S S S E E S S S S S S S S
 
 |------------------------|-------------------------|
 |------------------------|-------------------------|
 |------------------------|-------------------------|
 |---4--4-x-x-4-4-4-4-4-4-|---4---4-x-x-4-4-4-4-4-4-|
 |---4--4-x-x-4-4-4-4-4-4-|---4---4-x-x-4-4-4-4-4-4-|
 |---2--2-x-x-0-2-2-3-2-0-|---2---2-x-x-0-2-2-3-2-0-|

|
| +H. +H.
 
 |-(20)-------------------|-(20)\-------------------|
 |------------------------|-------------------------|
 |-(17)-------------------|-(17)\-------------------|
 |------------------------|-------------------------|
 |------------------------|-------------------------|
 |------------------------|-------------------------|

E S S S S E E E E S S S S E E E
 
 ||-------------------|------------------|
 ||o------------------|------------------|
 ||-------------------|------------------|
 ||--6--6-6-6-6-6-6-6-|-5--5-5-5-5-5-5-5-|
 ||o-6--6-6-6-6-6-6-6-|-5--5-5-5-5-5-5-5-|
 ||--4--4-4-4-4-0-4-0-|-3--3-3-3-3-0-3-0-|

|
| H. H.
 
 ||-------------------|------------------|
 ||o------------------|------------------|
 ||-------------------|------------------|
 ||-------------------|------------------|
 ||o------------------|------------------|
 ||-------------------|------------------|

Interlude
1.,2.,3.,4.,5. 6.
Gb N.C.
Gtr IV
E E S S S S S S S S E E S S S S S S S S S S S S S S S S S S S S
 
 |---------------------|----------------------||--------------------------|
 |---------------------|---------------------o||--------------------------|
 |---------------------|----------------------||--------------------------|
 |-4-4-x-x-4-4-4-4-4-4-|-4-4-x-x-4-4-4-4-4-4--||-4h5p4p0-------------0----|
 |-4-4-x-x-4-4-4-4-4-4-|-4-4-x-x-4-4-4-4-4-4-o||---------2p0-----2h4---4--|
 |-2-2-x-x-0-2-2-3-2-0-|-2-2-x-x-0-2-2-3-2-0--||-------------2h3----------|

Important: The song above is NOT stored on the Chordie server. The original song is hosted at www.xguitar.com. Chordie works as a search engine and provides on-the-fly formatting. Chordie does not index songs against artists'/composers' will. To remove this song please click here.

Text color:
Chord color:
Chord grids: 
Font size:    
Page size: 

A Abm Am Amadd9 Asus2 B Bbmadd9 Bbsus2 Bbsus2/F# Bm C Cm Cmadd9 D Db Dbm Dbm/Ab Dm E Eb Em F G Gbm
Rate #1 of 3 versions

Login - add to songbook

SHARE PAGE  




You need to log in to post comments