Guitar Tabs, Chords and Lyrics
Major upgrade!! After one year development the new version of Chordie is now online! Please give feedback.


The Funeral Portrait  Opeth

As recorded by Opeth
From the 2001 Album BLACKWATER PARK
Words and Music by Mikael Åkerfeldt
Arranged by Opeth
x 7 [A5/E]7 9 10 x x x [Am]7 5 5 x x x[Ab+5] 6 5 5 x x x[Esus4] 2 2 0 x
x 0 [A5]2 2 x x
Gtr I (E A D G B E) - 'M. Åkerfeldt - Dist. Gtr. #1'
Gtr II (E A D G B E) - 'P. Lindgren - Dist. Gtr. #1'
Gtr III (E A D G B E) - 'M. Åkerfeldt - Dist. Gtr. #2'
Gtr IV (E A D G B E) - 'P. Lindgren - Dist. Gtr. #2'
Gtr V (E A D G B E) - 'M. Åkerfeldt - Acoust. Gtr.'
Intro
Q.=135
N.(E)
12/8
Gtr V
Q E E E E E E E E E E Q E E E E E E E E E E 8x
 
 ||-------------0-----------|------------0-------------||
 ||o--------0-----0---0-----|--------0-----0---0------o||
 ||-------3---3-----3---3---|------3---3-----3---3-----||
 ||--2--2-----------------2-|-2--2-----------------2---||
 ||o------------------------|-------------------------o||
 ||-------------------------|--------------------------||

[E5]Gtrs I, II[E5]
Q E E E E e. S E E E E Q E E E E e. S E E E E 4x
 
 ||--------------------------------|---------------------------------||
 ||o-------------------------------|--------------------------------o||
 ||--------------------------------|---------------------------------||
 ||--------------------------------|---------------------------------||
 ||o-2--2--------5-7------7\-------|-2--2--------5-7------7\--------o||
 ||--0--0-(0)-/7-------------0h3h5-|-0--0-(0)-/7-------------0h3h5---||

|
| Gtr V
| Q E E E E E E E E E E Q E E E E E E E E E E 4x
 
 ||----------------0---------------|---------------0-----------------||
 ||o-----------0------0------0-----|-----------0------0------0------o||
 ||--------3-----3--------3----3---|-------3-----3--------3----3-----||
 ||--2--2------------------------2-|-2--2------------------------2---||
 ||o-------------------------------|--------------------------------o||
 ||--------------------------------|---------------------------------||

N.(G)
Q E E E E e. S E E E E 3x Q E E E E e. S E E E E
 
 ||-------------------------------||------------------------------|
 ||o-----------------------------o||------------------------------|
 ||-------------------------------||------------------------------|
 ||------------3-5------5\--------||-----------3-5------5\--------|
 ||o--------/5---------------1h3-o||--------/5--------------------|
 ||--3--3------------------3------||-3--3------------------0h3h5--|

|
| Q E E E E E E E E E E 3x Q E E E E E E E E E E
 
 ||--------------3----------------||-------------3----------------|
 ||o---------3------3------3-----o||---------3------3------3------|
 ||-------6----6--------6----6----||------6----6--------6----6----|
 ||--5--5----------------------5--||-5--5----------------------5--|
 ||o-----------------------------o||------------------------------|
 ||-------------------------------||------------------------------|

Verse #1
[E5]Q E E E E e. S E E E E [E5]Q E E E E e. S E E E E 4x
 
 ||--------------------------------|---------------------------------||
 ||o-------------------------------|--------------------------------o||
 ||--------------------------------|---------------------------------||
 ||--------------------------------|---------------------------------||
 ||o-2--2--------5-7------7\-------|-2--2--------5-7------7\--------o||
 ||--0--0-(0)-/7-------------0h3h5-|-0--0-(0)-/7-------------0h3h5---||

|
| Q E E E E E E E E E E Q E E E E E E E E E E 4x
 
 ||----------------0---------------|---------------0-----------------||
 ||o-----------0------0------0-----|-----------0------0------0------o||
 ||--------3-----3--------3----3---|-------3-----3--------3----3-----||
 ||--2--2------------------------2-|-2--2------------------------2---||
 ||o-------------------------------|--------------------------------o||
 ||--------------------------------|---------------------------------||

N.(G)
Q E E E E e. S E E E E 3x Q E E E E E E E E Q
 
 ||-------------------------------||-------------------------|
 ||o-----------------------------o||-------------------------|
 ||-------------------------------||-------------------------|
 ||------------3-5------5\--------||-----------3-5---5-5-----|
 ||o--------/5---------------1h3-o||--------/5---------------|
 ||--3--3------------------3------||-3--3--------------------|

|
| Q E E E E E E E E E E 3x Q E E E E E E E E E E
 
 ||--------------3----------------||-------------3-----------|
 ||o---------3------3------3-----o||---------3-----3---3-----|
 ||-------6----6--------6----6----||------6----6-----6---6---|
 ||--5--5----------------------5--||-5--5------------------5-|
 ||o-----------------------------o||-------------------------|
 ||-------------------------------||-------------------------|

Verse #1 - Pt. II
Db° C° B° BbA5 G5E5
Gtr I
E E E E E E E E E E Q W
 
 |---------------------------|-------------------------|
 |---------------------------|-------------------------|
 |-6-6-6-6-6-6-5-5-5-4-------|-------------------------|
 |-5-5-5-5-5-5-4-4-4-3-------|-------------------------|
 |-4-4-4-4-4-4-3-3-3-2-------|-------------------------|
 |---------------------------|-------------------------|

|
| Gtr II
| E E E E E E E E E E E E E E E E Q Q E E E E
 
 |---------------------------|-------------------------|
 |---------------------------|-------------------------|
 |---------------------------|-------------------------|
 |---------------------------|-------------------------|
 |-8-8-8-8-8-8-7-7-7-6-6-(6)-|-8s7-7-7-8--7--7-5-\2-2--|
 |-6-6-6-6-6-6-5-5-5-4-4-(4)-|-6s5-5-5-6--5--5-3p=0-0--|

BbA5 E5 BbA5 G5E5 N.C.
 
 PM--------|

E E E E Q Q E E E E E E E E Q Q E E E E E E E E E E E E E E E E
 
 |------------------------|------------------------|----------------------------|
 |------------------------|------------------------|----------------------------|
 |------------------------|------------------------|----------------------------|
 |------------------------|------------------------|----------------------------|
 |-8s7-7-7-8--7--7-5-\2-2-|-8s7-7-7-8--7--7-5-\2-2-|---2---2---(2)-8-7-5-0------|
 |-6s5-5-5-6--5--5-3p=0-0-|-6s5-5-5-6--5--5-3p=0-0-|-4---3---0-------------3-0--|

|
 
 | PM--------|

| E E E E Q Q E E E E E E E E Q Q E E E E E E E E E E E E E E E E
 
 |------------------------|------------------------|----------------------------|
 |------------------------|------------------------|----------------------------|
 |------------------------|------------------------|----------------------------|
 |------------------------|------------------------|----------------------------|
 |-8s7-7-7-8--7--7-5-\2-2-|-8s7-7-7-8--7--7-5-\2-2-|---2---2---(2)-8-7-5-0------|
 |-6s5-5-5-6--5--5-3p=0-0-|-6s5-5-5-6--5--5-3p=0-0-|-4---3---0-------------3-0--|

[BbA5]E E E E Q Q E E E [E5]E [BbA5]E E E E Q Q E E E [E5]E
 
 ||-------------------------|------------------------|
 ||o------------------------|------------------------|
 ||-------------------------|------------------------|
 ||-------------------------|------------------------|
 ||o-8s7-7-7-8--7--7-5-\2-2-|-8s7-7-7-8--7--7-5-\2-2-|
 ||--6s5-5-5-6--5--5-3p=0-0-|-6s5-5-5-6--5--5-3p=0-0-|

|
| E E E E Q Q E E E E E E E E Q Q E E E E
 
 ||-------------------------|------------------------|
 ||o------------------------|------------------------|
 ||-------------------------|------------------------|
 ||-------------------------|------------------------|
 ||o-8s7-7-7-8--7--7-5-\2-2-|-8s7-7-7-8--7--7-5-\2-2-|
 ||--6s5-5-5-6--5--5-3p=0-0-|-6s5-5-5-6--5--5-3p=0-0-|

1.,2.,3.,4.
BbA5 E5 N.C.
 
 PM--------|

E E E E Q Q E E E E E E E E E E E E E E E E 5x
 
 |------------------------|----------------------------||
 |------------------------|---------------------------o||
 |------------------------|----------------------------||
 |------------------------|----------------------------||
 |-8s7-7-7-8--7--7-5-\2-2-|---2---2---(2)-8-7-5-0-----o||
 |-6s5-5-5-6--5--5-3p=0-0-|-4---3---0-------------3-0--||

|
 
 | PM--------|

| E E E E Q Q E E E E E E E E E E E E E E E E 5x
 
 |------------------------|----------------------------||
 |------------------------|---------------------------o||
 |------------------------|----------------------------||
 |------------------------|----------------------------||
 |-8s7-7-7-8--7--7-5-\2-2-|---2---2---(2)-8-7-5-0-----o||
 |-6s5-5-5-6--5--5-3p=0-0-|-4---3---0-------------3-0--||

5.
 
 PM--------|

[E] [E] [E] [E] [E] [E] [E] [E] [E] [E] [E] [E]  
 
 |----------------------------
 |----------------------------
 |----------------------------
 |----------------------------
 |---2---2---(2)-8-7-5-----5--
 |-4---3---0-----------4-0----

|
 
 | PM------|

| E E E E E E E E E E E E
 
 |----------------------------
 |----------------------------
 |----------------------------
 |----------------------------
 |---2---2---(2)-8-7-5-----5--
 |-4---3---0-----------4-0----

Bridge #1
N.C(E) E5
~~ PM| ~~ PM| ~ ~
Q. E E E Q. E E E E E E E E E E E E E E E
 
 ||------------------------|---------------------------------|
 ||o-----------------------|---------------------------------|
 ||------------------------|---------------------------------|
 ||------------------------|---6---6S7-10-9-7-10--9---7------|
 ||o-7--------5-7--------6-|-7---7------------------------8--|
 ||-------0-0--------0-0---|---------------------------------|

|
 
 | ~~ PM| ~~ PM----------------|

| Q. E E E Q. E E E E E E E E E E E E E E E
 
 ||------------------------|---------------------------------|
 ||o-----------------------|---------------------------------|
 ||------------------------|---------------------------------|
 ||------------------------|---------------------(2)-(2)-(2)-|
 ||o-7--------5-7----------|--------------2-2--2--2---2---2--|
 ||-------0-0--------0-0-0-|-0-0-0-0-0--0-0-0--0--0---0---0--|

|
| Gtr III
| W W
 
 ||------------------------|---------------------------------|
 ||o-----------------------|---------------------------------|
 ||------------------------|---------------------------------|
 ||------------------------|---------------------------------|
 ||o-----------------------|---------------------------------|
 ||------------------------|---------------------------------|

1.,2.,3.
[E5] [E5] PM--|
Q E E E E E E E E E E Q E S S E E E E E E E E 4x
 
 |---------------------------------|---------------------------||
 |---------------------------------|--------------------------o||
 |-------7s=9--9--9s10-10-10s14-14-|---------------------------||
 |---------------------------------|---------------------------||
 |-2-----5s=7--7--7s=8--8--8s12-12-|------7h8p7-6h7p6-------5-o||
 |-0--0----------------------------|-0--0-------------8-7-0----||

|
| PM--|
| Q E E E E E E E E E E Q E S S E E E E E E E E 4x
 
 |---------------------------------|---------------------------||
 |---------------------------------|--------------------------o||
 |-------7s=9--9--9s10-10-10s14-14-|---------------------------||
 |---------------------------------|---------------------------||
 |-2-----5s=7--7--7s=8--8--8s12-12-|------7h8p7-6h7p6-------5-o||
 |-0--0----------------------------|-0--0-------------8-7-0----||

|
| Q E E E E E E E E E E W 4x
 
 |---------------------------------|---------------------------||
 |------12-12-12-10-10-10----------|--------------------------o||
 |------------------------10-10-10-|---------------------------||
 |-------9--9--9--7--7--7----------|---------------------------||
 |-------------------------8--8--8-|--------------------------o||
 |---------------------------------|---------------------------||

4.
E5 N.C.
6/8
PM----|
Q E S S E E E E E Q +E E E E E E E
 
 |------------------------------|-------------|
 |------------------------------|-------------|
 |--------------------10--(10)\-|-------------|
 |------------------------------|-------------|
 |------7h8p7-6h7p6----8---(8)\-|-------------|
 |-0--0-------------8-----------|-6-0-5-0-1p0-|

|
| PM----|
| Q E S S E E E E E Q +E E E E E E E
 
 |------------------------------|-------------|
 |------------------------------|-------------|
 |------------------------------|-------------|
 |------------------------------|-------------|
 |------7h8p7-6h7p6----8---(8)\-|-------------|
 |-0--0-------------8-----------|-6-0-5-0-1p0-|

12/8[E] [Fm]
Q E E +W H +W
 
 |--------------------------|--------------------------|
 |--------------------------|--------------------------|
 |--------------------------|--------------------------|
 |-------6-(6)--------------|--------------------------|
 |--------------------------|-8-------(8)--------------|
 |--------------------------|--------------------------|

|
| PM--| PM PM--| PM
| E E E Q E E E E Q E E E E Q E E E E Q E
 
 |--------------------------|--------------------------|
 |--------------------------|--------------------------|
 |--------------------------|--------------------------|
 |-------6-----6---6---6--6-|-------6-----6---6---6--6-|
 |-------7-----7---7---7--7-|-------8-----8---8---8--8-|
 |-0-0-0---------0----------|-0-0-0---------0----------|

H [Db5] +W H. [Fm] E [Bm6]E E E E E
 
 |--------------------------|-------------------------|
 |--------------------------|-------------------------|
 |--------------------------|-------------------------|
 |--------------------------|-----------------------5-|
 |-5-------(5)--------------|-----------------5h7h8---|
 |--------------------------|-4-----------0h4---------|

|
| PM--| PM PM PM
| E E E Q E E E E Q E E E E Q E E E E Q E
 
 |--------------------------|-------------------------|
 |--------------------------|-------------------------|
 |--------------------------|-------------------------|
 |-------6-----6---6---6--6-|----6---6--6---6---6---6-|
 |-------5-----5---5---5--5-|----8---8--8---5---5---5-|
 |-0-0-0---------0----------|-0-----------0-7---7---7-|

H [E] +W H [Fm] +W
 
 |--------------------------|--------------------------|
 |--------------------------|--------------------------|
 |--------------------------|--------------------------|
 |-6-------(6)--------------|--------------------------|
 |--------------------------|-8-------(8)--------------|
 |--------------------------|--------------------------|

|
| PM--| PM PM--| PM
| E E E Q E E E E Q E E E E Q E E E E Q E
 
 |--------------------------|--------------------------|
 |--------------------------|--------------------------|
 |--------------------------|--------------------------|
 |-------6-----6---6---6--6-|-------6-----6---6---6--6-|
 |-------7-----7---7---7--7-|-------8-----8---8---8--8-|
 |-0-0-0---------0----------|-0-0-0---------0----------|

H [Db5] +W H. [Fm] E [Bm6]E E E E E
 
 |--------------------------|-------------------------|
 |--------------------------|-------------------------|
 |--------------------------|-------------------------|
 |--------------------------|-----------------------5-|
 |-5-------(5)--------------|-----------------5h7h8---|
 |--------------------------|-4-----------0h4---------|

|
| PM--| PM PM PM
| E E E Q E E E E Q E E E E Q E E E E Q E
 
 |--------------------------|-------------------------|
 |--------------------------|-------------------------|
 |--------------------------|-------------------------|
 |-------6-----6---6---6--6-|----6---6--6---6---6---6-|
 |-------5-----5---5---5--5-|----8---8--8---5---5---5-|
 |-0-0-0---------0----------|-0-----------0-7---7---7-|

$
Gtr II[E]I[Fm]
< <
Q E E +W +Q. E +W
 
 |--------------------------|----------------------------|
 |-------9-(9)--------------|-(9)-----8-(8)--------------|
 |--------------------------|----------------------------|
 |--------------------------|----------------------------|
 |--------------------------|----------------------------|
 |--------------------------|----------------------------|

|
| Gtr I
| H +W H +W
 
 |--------------------------|----------------------------|
 |--------------------------|----------------------------|
 |--------------------------|----------------------------|
 |-6-------(6)--------------|----------------------------|
 |--------------------------|--8--------(8)--------------|
 |--------------------------|----------------------------|

|
| Gtr II
| PM--| PM PM---| PM
| E E E Q E E E E Q E E E E Q E E E E Q E
 
 |--------------------------|----------------------------|
 |--------------------------|----------------------------|
 |--------------------------|----------------------------|
 |-------6-----6---6---6--6-|---------6-----6---6---6--6-|
 |-------7-----7---7---7--7-|---------8-----8---8---8--8-|
 |-0-0-0---------0----------|--0--0-0---------0----------|

[Db5] < [Fm] [Bm6]< <
+Q. E +W +H. +E E +Q E +E
 
 |------------------------------|----------------------------------|
 |-(8)--------------------------|-------------------9-(9)--11-(11)-|
 |---------10-(10)--------------|-(10)----------(10)---------------|
 |------------------------------|----------------------------------|
 |------------------------------|----------------------------------|
 |------------------------------|----------------------------------|

|
| H +W H. E E E E E E
 
 |------------------------------|----------------------------------|
 |------------------------------|----------------------------------|
 |------------------------------|----------------------------------|
 |------------------------------|-------------------------------5--|
 |--5----------(5)--------------|----------------------5h7h=8------|
 |------------------------------|---4-------------0h4--------------|

|
| PM---| PM PM PM
| E E E Q E E E E Q E E E E Q E E E E Q E
 
 |------------------------------|----------------------------------|
 |------------------------------|----------------------------------|
 |------------------------------|----------------------------------|
 |----------6------6---6---6--6-|------6---6--6-----6----6------6--|
 |----------5------5---5---5--5-|------8---8--8-----5----5------5--|
 |--0--0-0-----------0----------|---0-------------0-7----7------7--|

[E] <[Fm]
+H +E Q +E +H +H +W
 
 |-------------------------------------|------------------------------|
 |-(11)-------(11)-12---(12)-(12)------|-(12)-------(12)--------------|
 |-------------------------------------|------------------------------|
 |-------------------------------------|------------------------------|
 |-------------------------------------|------------------------------|
 |-------------------------------------|------------------------------|

|
| H +W H +W
 
 |-------------------------------------|------------------------------|
 |-------------------------------------|------------------------------|
 |-------------------------------------|------------------------------|
 |---6---------(6)---------------------|------------------------------|
 |-------------------------------------|---8---------(8)--------------|
 |-------------------------------------|------------------------------|

|
 
 | PM---| PM PM---| PM

| E E E Q E E E E Q E E E E Q E E E E Q E
 
 |-------------------------------------|------------------------------|
 |-------------------------------------|------------------------------|
 |-------------------------------------|------------------------------|
 |----------6-------6-----6-------6--6-|----------6------6---6---6--6-|
 |----------7-------7-----7-------7--7-|----------8------8---8---8--8-|
 |---0--0-0-----------0----------------|---0--0-0----------0----------|

To Coda
[Db5] <[Fm] [Bm6]
+Q. E +W +H +W
 
 |-------------------------------|------------------------------|
 |-(12)-----11-(11)--------------|-(11)-------(11)--------------|
 |-------------------------------|------------------------------|
 |-------------------------------|------------------------------|
 |-------------------------------|------------------------------|
 |-------------------------------|------------------------------|

|
| H +W H +W
 
 |-------------------------------|------------------------------|
 |-------------------------------|------------------------------|
 |-------------------------------|------------------------------|
 |-------------------------------|------------------------------|
 |---5----------(5)--------------|------------------------------|
 |-------------------------------|---4---------(4)--------------|

|
| PM---| PM PM PM
| E E E Q E E E E Q E E E E Q E E E E Q E
 
 |-------------------------------|------------------------------|
 |-------------------------------|------------------------------|
 |-------------------------------|------------------------------|
 |-----------6------6---6---6--6-|------6---6------6---6---6--6-|
 |-----------5------5---5---5--5-|------8---8------8---5---5--5-|
 |---0--0-0-----------0----------|---0---------------0-7---7--7-|

Breakdown
F#5 G5 N.C.
[6/4] Gtr I
PM--|
E E E E E E E E E E E E Q Q e e E E E E E E 6x
 
 ||-----------------------------|-------------------------||
 ||o----------------------------|------------------------o||
 ||---------0-------------0-----|-------------------------||
 ||-------4---4---------4---4---|------------------2------||
 ||o----4-------4-----4-------4-|--------------0h2---2-0-o||
 ||--2-------------3------------|-/6--5--3-2-0------------||

|
| Gtr II
| PM--|
| H. H. Q Q e e E E E E E E 6x
 
 ||-----------------------------|-------------------------||
 ||o----------------------------|------------------------o||
 ||-----------------------------|-------------------------||
 ||-----------------------------|------------------2------||
 ||o-4------------(5)-----------|--------------0h2---2-0-o||
 ||--2-------------3------------|-/6--5--3-2-0------------||

Bridge #1 - Pt. II
12/8[E] [Fm]
Gtr III
W W
 
 ||---------------------------|--------------------------|
 ||o--------------------------|--------------------------|
 ||---------------------------|--------------------------|
 ||---------------------------|--------------------------|
 ||o--------------------------|--------------------------|
 ||---------------------------|--------------------------|

|
| Gtr I
| H +W H +W
 
 ||---------------------------|--------------------------|
 ||o--------------------------|--------------------------|
 ||---------------------------|--------------------------|
 ||--6-------(6)--------------|--------------------------|
 ||o--------------------------|-8-------(8)--------------|
 ||---------------------------|--------------------------|

|
| Gtr II
| PM--| PM PM--| PM
| E E E Q E E E E Q E E E E Q E E E E Q E
 
 ||---------------------------|--------------------------|
 ||o--------------------------|--------------------------|
 ||---------------------------|--------------------------|
 ||--------6-----6---6---6--6-|-------6-----6---6---6--6-|
 ||o-------7-----7---7---7--7-|-------8-----8---8---8--8-|
 ||--0-0-0---------0----------|-0-0-0---------0----------|

W[Db5]
 
 |--------------------------|
 |--------------------------|
 |--------------------------|
 |--------------------------|
 |--------------------------|
 |--------------------------|

|
| H +W
 
 |--------------------------|
 |--------------------------|
 |--------------------------|
 |--------------------------|
 |-5-------(5)--------------|
 |--------------------------|

|
| PM--| PM
| E E E Q E E E E Q E
 
 |--------------------------|
 |--------------------------|
 |--------------------------|
 |-------6-----6---6---6--6-|
 |-------5-----5---5---5--5-|
 |-0-0-0---------0----------|

D.S. al Coda &
[Fm] [Bm6] [Fm] ~~~~
W H +W
 
 |--------------------------||---------------------------
 |-------------------------o||-(11)-------(11)-----------
 |--------------------------||---------------------------
 |--------------------------||---------------------------
 |-------------------------o||---------------------------
 |--------------------------||---------------------------

|
| ~~~~
| H. E E E E E E H +W
 
 |--------------------------||---------------------------
 |-------------------------o||---------------------------
 |--------------------------||---------------------------
 |-----------------------5--||---------------------------
 |-----------------5h7h8---o||---8---------(8)-----------
 |-4-----------0h4----------||---------------------------

|
| PM PM PM
| E E E Q E E E E Q E E E E Q E Q H
 
 |--------------------------||---------------------------
 |-------------------------o||---------------------------
 |--------------------------||---------------------------
 |----6---6--6---6---6---6--||------6---6------6---------
 |----8---8--8---5---5---5-o||------8---8------8---------
 |-0-----------0-7---7---7--||---0-----------------------

Acoustic Guitar Break
N.C. (E)
11/8 12/8
>
~~~~~~~~~~~~~~~~~~~~~~~~~~~~~~~~~~~~
+Q. +W +H W
 
 |--------------------------------|----------------|
 |-(11)------(11)-----------------|-(11)-----------|
 |--------------------------------|----------------|
 |--------------------------------|----------------|
 |--------------------------------|----------------|
 |--------------------------------|----------------|

|
| >
| ~~~~~~~~~~~~~~~~~~~~~~~~~~~~~~~~~~~~
| +Q. +W +H W
 
 |--------------------------------|----------------|
 |--------------------------------|----------------|
 |--------------------------------|----------------|
 |--------------------------------|----------------|
 |--(8)-------(8)-----------------|--(8)-----------|
 |--------------------------------|----------------|

|
| Gtr V
| E E E E E E E E E E E H +W
 
 |---0----------------------------|----------------|
 |------0------------0------------|----------------|
 |--------10------10---10---------|----------------|
 |-------------9----------9---9---|----------------|
 |--------------------------8---8-|--(7)----(7)----|
 |--------------------------------|----------------|

N.(E)
11/8 12/8
Gtr V
E E E E E E E E E E E H +W 3x
 
 ||--0------------------------|----------------||
 ||o---0---------0------------|---------------o||
 ||------10---10---10---------|----------------||
 ||---------9---------9---9---|----------------||
 ||o--------------------8---8-|-(7)----(7)----o||
 ||---------------------------|----------------||

Bridge #2
G#° G#° A#°
[6/4] Gtrs I, II
Q E E E E H +Q Q E E E E E E E Q E 6x
 
 ||-------------------------|-------------------------||
 ||o------------------------|------------------------o||
 ||--7--7-7-7-7-7b8r===(7)--|-7--7-7-9s10s9-9-9-9--9--||
 ||--6--6-6-6-6-------------|-6--6-6--------8-8-8--8--||
 ||o-5--5-5-5-5-5b6r===(5)--|-5--5-5-7s=8s7-7-7-7--7-o||
 ||--4--4-4-4-4-------------|-4--4-4--------6-6-6--6--||

Guitar Solo #1
1[E5]2/8[D5] [B5] [Dsus4]
Gtr I
[E] [E] [E] [E] [E] [E] [E] [E] [E] [E] [E] [E] [E] [E] [E] [E] [E] [E] [E] [E] [E] [E] [E] [E]  
 
 |-15-14-12-14-11-12-7-8----7------|---------------------------|
 |-----------------------10---8-10-|-7-8-7-------------------7-|
 |---------------------------------|-------9-8-------------9---|
 |---------------------------------|-----------9---------9-----|
 |---------------------------------|-------------10-7-10-------|
 |---------------------------------|---------------------------|

|
| Gtr II
| Q E E E E E E Q Q Q E E E E Q E E E E
 
 |---------------------------------|---------------------------|
 |---------------------------------|-8---8-8-8-8--8----8-8-8-8-|
 |--9-----9--9--9--9-7-x--4---4----|-7---7-7-7-7--7----7-7-7-7-|
 |--9-----9--9--9--9-7-x--4---4----|-5---5-5-5-5--5----5-5-5-5-|
 |--7-----7--7--7--7-5-x--2---2----|-5---5-5-5-5--5----5-5-5-5-|
 |---------------------------------|---------------------------|

[E5]~~[D#m]
H. Q Q Q E +H E E +E +H
 
 |--------------------------|---------------------8---------------------|
 |--------------------7--8--|-10b12==(10)-------(10)-10r(10)-(10)-------|
 |-9-----------/9-----------|-------------------------------------------|
 |--------------------------|-------------------------------------------|
 |--------------------------|-------------------------------------------|
 |--------------------------|-------------------------------------------|

|
| Q E E E E E E Q Q Q E E E E Q E E E E
 
 |--------------------------|-------------------------------------------|
 |--------------------------|--7----------7-7-7---7---7--------7--7-7-7-|
 |-9---9-9-9-9-11s12s11--9--|--8----------8-8-8---8---8--------8--8-8-8-|
 |-9---9-9-9-9--------------|--8----------8-8-8---8---8--------8--8-8-8-|
 |-7---7-7-7-7--9s10s=9--7--|--6----------6-6-6---6---6--------6--6-6-6-|
 |--------------------------|-------------------------------------------|

[E5] S +S E E Q +E [D5] H [B5] +Q
 
 |-----------------12----------------12-------(12)---|
 |--------------12----15b17====(15)-(15)------(15)r--|
 |-14b16==(14)r--------------------------------------|
 |---------------------------------------------------|
 |---------------------------------------------------|
 |---------------------------------------------------|

|
| Q E E E E E E Q Q
 
 |---------------------------------------------------|
 |---------------------------------------------------|
 |--9---------------9--9-----9---9----7--x-4----4----|
 |--9---------------9--9-----9---9----7--x-4----4----|
 |--7---------------7--7-----7---7----5--x-2----2----|
 |---------------------------------------------------|

[Dsus4] E E E E E E Q +E Q.
 
 |-15-12---------------------------------|
 |-------15-11---------------------------|
 |-------------14-12-14b15r=(14)-12------|
 |---------------------------------------|
 |---------------------------------------|
 |---------------------------------------|

|
| Q E E E E Q E E E E
 
 |---------------------------------------|
 |--8-----8--8--8--8--8-------8---8--8-8-|
 |--7-----7--7--7--7--7-------7---7--7-7-|
 |--5-----5--5--5--5--5-------5---5--5-5-|
 |--5-----5--5--5--5--5-------5---5--5-5-|
 |---------------------------------------|

[E5] E +H +E Q Q Q [D#m] E +W +Q.
 
 |--------------------------------------|------------------------------------|
 |-19b20==(19)-------(19)r19----17--19--|------------------------------------|
 |--------------------------------------|-14b16==(14)--------------(14)r-----|
 |--------------------------------------|------------------------------------|
 |--------------------------------------|------------------------------------|
 |--------------------------------------|------------------------------------|

|
| Q E E E E E E Q Q Q E E E E Q E E E E
 
 |--------------------------------------|------------------------------------|
 |--------------------------------------|--7----------7-7-7-7-7--7---7---7-7-|
 |--9----------9-9-9---9--11s12s11---9--|--8----------8-8-8-8-8--8---8---8-8-|
 |--9----------9-9-9---9----------------|--8----------8-8-8-8-8--8---8---8-8-|
 |--7----------7-7-7---7---9s10s=9---7--|--6----------6-6-6-6-6--6---6---6-6-|
 |--------------------------------------|------------------------------------|

Guitar Solo #2
[Dm] [Dbm] 
[6/4] Q E E E E Q E E E E Q E E E E Q E E E E
 
 |------------------------------------|-------------------------------|
 |--6-----6--6--6-6--6-----6--6--6--6-|--5-----5-5--5--5--5---5-5-5-5-|
 |--7-----7--7--7-7--7-----7--7--7--7-|--6-----6-6--6--6--6---6-6-6-6-|
 |--7-----7--7--7-7--7-----7--7--7--7-|--6-----6-6--6--6--6---6-6-6-6-|
 |--5-----5--5--5-5--5-----5--5--5--5-|--4-----4-4--4--4--4---4-4-4-4-|
 |------------------------------------|-------------------------------|

|
| E E E E Q E E E E E E E E Q E E H.
 
 |------------------------------------|-------------------------------|
 |------------------------------------|-------------------------------|
 |------------------12----------------|-------------------------------|
 |-12-11-12-14-15------15-14-15-12-13-|-11---/11----------------------|
 |------------------------------------|------------12-----------------|
 |------------------------------------|---------------13-12-----------|

[Em] Q E E E E [D] E q q E [Bm] Q E E E E Q E E E E
 
 |--------------------------------|--2--------2--2--2--2--2---2-2-2-2-|
 |--8---8-x-x-x--7--7-----7-----x-|--3--------3--3--3--3--3---3-3-3-3-|
 |--9---9-x-x-x--7--7-----7-----x-|--4--------4--4--4--4--4---4-4-4-4-|
 |--9---9-x-x-x--7--7-----7-----x-|--4--------4--4--4--4--4---4-4-4-4-|
 |--7---7-x-x-x--5--5-----5-----x-|--2--------2--2--2--2--2---2-2-2-2-|
 |--------------------------------|-----------------------------------|

|
| ~~~ ~~~
| H. E E E E E E S S E E E E E H.
 
 |--------------------------------|-14h15p14----14--------------------|
 |--------------------------16-17-|----------17----16-17--------------|
 |-----------------------16-------|----------------------16-----------|
 |-14-----------14-16-17----------|-----------------------------------|
 |--------------------------------|-----------------------------------|
 |--------------------------------|-----------------------------------|

[Dm] Q E E E E Q E E E E [Dbm] Q E E E E Q E E E E
 
 |-----------------------------------|---------------------------|
 |--6---6-6-6-6--6--------6--6--6--6-|--5--5-5--5-5--5---5-5-5-5-|
 |--7---7-7-7-7--7--------7--7--7--7-|--6--6-6--6-6--6---6-6-6-6-|
 |--7---7-7-7-7--7--------7--7--7--7-|--6--6-6--6-6--6---6-6-6-6-|
 |--5---5-5-5-5--5--------5--5--5--5-|--4--4-4--4-4--4---4-4-4-4-|
 |-----------------------------------|---------------------------|

|
| H. S S E E E E E H Q H.
 
 |-----------------------------------|---------------------------|
 |-----------------------------------|---------------------------|
 |-14-----------12h14p12----12-------|-13------------------------|
 |-----------------------15----14-15-|---------11----------------|
 |-----------------------------------|--------------11-----------|
 |-----------------------------------|---------------------------|

[Em] Q E E E E [D] E q q E [Bm] Q E E E E Q E E E E
 
 |---------------------------------|-----2---2-2--2-2-2----2-2-2-2-|
 |--8------8-x-x--x--7--7----7---x-|-----3---3-3--3-3-3----3-3-3-3-|
 |--9------9-x-x--x--7--7----7---x-|-----4---4-4--4-4-4----4-4-4-4-|
 |--9------9-x-x--x--7--7----7---x-|-----4---4-4--4-4-4----4-4-4-4-|
 |--7------7-x-x--x--5--5----5---x-|-----2---2-2--2-2-2----2-2-2-2-|
 |---------------------------------|-------------------------------|

|
| E +H E E E E q E a Q q q E E H
 
 |---------------------------------|-------------------------------|
 |---------------------------------|-------------------------------|
 |---------------------------------|-------------------------------|
 |-14-(14)-------12-14-12----------|-----------------------9-------|
 |--------------------------12--10-|-12s14--12---10---9h10---------|
 |---------------------------------|-------------------------------|

Guitar Solo #3
12/[E5]8[D5] [B5] [Dsus4]
~~
a E E E +Q +H +E +E E E E E E E E H.
 
 |---------------------------------------|--------7---7--------------|
 |---------------------------------------|------7---8---8------------|
 |-----7-9-(9)b11====(9)-------(9)r(9)-7-|-9-10----------------------|
 |-7s9-----------------------------------|---------------------------|
 |---------------------------------------|---------------------------|
 |---------------------------------------|---------------------------|

|
| Q E E E E E E Q Q Q E E E E Q E E E E
 
 |---------------------------------------|---------------------------|
 |---------------------------------------|-8----8-8-8-8-8---8-8-8-8--|
 |---9---9--9------9--9--7-x-4------4----|-7----7-7-7-7-7---7-7-7-7--|
 |---9---9--9------9--9--7-x-4------4----|-5----5-5-5-5-5---5-5-5-5--|
 |---7---7--7------7--7--5-x-2------2----|-5----5-5-5-5-5---5-5-5-5--|
 |---------------------------------------|---------------------------|

[E5] [D#m] ~~~
E E E E +Q +Q Q Q E E E Q. E E E Q.
 
 |--------15-17b19==(17)---(17)r===17--15--|-14-15-----------------------------|
 |-----17----------------------------------|-------17---------15----14---------|
 |-/16-------------------------------------|----------16---------16----16------|
 |-----------------------------------------|-----------------------------------|
 |-----------------------------------------|-----------------------------------|
 |-----------------------------------------|-----------------------------------|

|
| Q E E E E E E Q Q Q E E E E Q E E E E
 
 |-----------------------------------------|-----------------------------------|
 |-----------------------------------------|--7-----7--7--7-7--7-----7--7--7-7-|
 |---9-----9--9-------9--9--11s=12s11---9--|--8-----8--8--8-8--8-----8--8--8-8-|
 |---9-----9--9-------9--9-----------------|--8-----8--8--8-8--8-----8--8--8-8-|
 |---7-----7--7-------7--7---9s=10s=9---7--|--6-----6--6--6-6--6-----6--6--6-6-|
 |-----------------------------------------|-----------------------------------|

[E5]E E E E E E [D5]E E [B5]E E E E [Dsus4] E E E E E E E E E Q.
 
 |--------------------------|---------------------------------------|
 |--------------------------|------------------------------/15------|
 |--------9-----------------|-----------12----12-----15-------------|
 |------9---9-8-------------|--------12----12----/17----17----------|
 |-7-10---------9-7---6-----|-/10-13--------------------------------|
 |------------------7---7-0-|---------------------------------------|

|
| Q E E E E E E Q Q Q E E E E Q E E E E
 
 |--------------------------|---------------------------------------|
 |--------------------------|---8-----8--8--8--8---8-----8---8--8-8-|
 |-9----9-9-9-9-7-x-4---4---|---7-----7--7--7--7---7-----7---7--7-7-|
 |-9----9-9-9-9-7-x-4---4---|---5-----5--5--5--5---5-----5---5--5-5-|
 |-7----7-7-7-7-5-x-2---2---|---5-----5--5--5--5---5-----5---5--5-5-|
 |--------------------------|---------------------------------------|

[E5]  
[E] [E] [E] [E] [E] [E] [E] [E] [E] [E] [E] [E]  
 
 |-------------15-19-19-15-------------|
 |----------17-------------17----------|
 |-------16-------------------16-------|
 |-14-17-------------------------17-14-|
 |-------------------------------------|
 |-------------------------------------|

|
| Q E E E E E E Q Q
 
 |-------------------------------------|
 |-------------------------------------|
 |--9-----9--9--9--9-11s12s11-----9----|
 |--9-----9--9--9--9-------------------|
 |--7-----7--7--7--7--9s10s=9-----7----|
 |-------------------------------------|

[D#m] E E E E E E S +S +E +H
 
 |-------------14-18--22b23===(22)-(22)-(22)r-------|
 |----------16-------(22)b23==(22)-(22)-(22)r-------|
 |-------15-----------------------------------------|
 |-13-16--------------------------------------------|
 |--------------------------------------------------|
 |--------------------------------------------------|

|
| Q E E E E Q E E E E
 
 |--------------------------------------------------|
 |--7-----7--7--7--7---7------------------7---7-7-7-|
 |--8-----8--8--8--8---8------------------8---8-8-8-|
 |--8-----8--8--8--8---8------------------8---8-8-8-|
 |--6-----6--6--6--6---6------------------6---6-6-6-|
 |--------------------------------------------------|

Guitar Solo #4
[Dm] [Dbm]  
[6/4] Q E E E E Q E E E E Q E E E E Q E E E E
 
 |--------------------------------|---------------------------------|
 |--6---6-6-6-6--6-----6--6--6--6-|--5--5-5--5--5--5-----5---5--5-5-|
 |--7---7-7-7-7--7-----7--7--7--7-|--6--6-6--6--6--6-----6---6--6-6-|
 |--7---7-7-7-7--7-----7--7--7--7-|--6--6-6--6--6--6-----6---6--6-6-|
 |--5---5-5-5-5--5-----5--5--5--5-|--4--4-4--4--4--4-----4---4--4-4-|
 |--------------------------------|---------------------------------|

|
| ~~~
| H. E E E E E E H E E E E E +Q.
 
 |--------------------------------|---------------------------------|
 |--------------------------------|---------------------------------|
 |-14-----------12-14-12----------|-13------------------------------|
 |-----------------------15-14-15-|---------13-14-11-13-14-(14)-----|
 |--------------------------------|---------------------------------|
 |--------------------------------|---------------------------------|

[Em] Q E E E E [D] E q q E [Bm] Q E E E E Q E E E E
 
 |--------------------------------------|--2--2-2---2--2-2--2-2-2-2-|
 |--8--------8--x--x-x--7-7--7--------x-|--3--3-3---3--3-3--3-3-3-3-|
 |--9--------9--x--x-x--7-7--7--------x-|--4--4-4---4--4-4--4-4-4-4-|
 |--9--------9--x--x-x--7-7--7--------x-|--4--4-4---4--4-4--4-4-4-4-|
 |--7--------7--x--x-x--5-5--5--------x-|--2--2-2---2--2-2--2-2-2-2-|
 |--------------------------------------|---------------------------|

|
| ~~~~~~~~~~~~
| Q +Q Q H S S E H +W
 
 |--------------------------------------|---------------------------|
 |--------------------------------------|---------------------------|
 |---------------------16------14h16p14-|---------------------------|
 |-16b17===(16)r==14--------------------|-16------(16)--------------|
 |--------------------------------------|---------------------------|
 |--------------------------------------|---------------------------|

[Dm] Q E E E E Q E E E E [Dbm] Q E E E E Q E E E E
 
 |---------------------------|-----------------------------------|
 |--6---6-6-6-6--6---6-6-6-6-|--5---5-5-5-5--5--------5---5--5-5-|
 |--7---7-7-7-7--7---7-7-7-7-|--6---6-6-6-6--6--------6---6--6-6-|
 |--7---7-7-7-7--7---7-7-7-7-|--6---6-6-6-6--6--------6---6--6-6-|
 |--5---5-5-5-5--5---5-5-5-5-|--4---4-4-4-4--4--------4---4--4-4-|
 |---------------------------|-----------------------------------|

|
| H. Q H H. S S E E +Q.
 
 |---------------------------|-----------------------------------|
 |---------------------------|-----------------------------------|
 |---------------------------|-13-----------11h13p11-------------|
 |-15-----------14--12-------|-----------------------14-(14)-----|
 |---------------------------|-----------------------------------|
 |---------------------------|-----------------------------------|

[Em] Q E E E E [D]E q q E [Bm]Q E E E E Q E E E E
 
 |-----------------------------|---2--2-2-2-2-2---2--2-2--2-|
 |--8---8-----x-x-x-7-7--7---x-|---3--3-3-3-3-3---3--3-3--3-|
 |--9---9-----x-x-x-7-7--7---x-|---4--4-4-4-4-4---4--4-4--4-|
 |--9---9-----x-x-x-7-7--7---x-|---4--4-4-4-4-4---4--4-4--4-|
 |--7---7-----x-x-x-5-5--5---x-|---2--2-2-2-2-2---2--2-2--2-|
 |-----------------------------|----------------------------|

|
| Q S S E Q H Q a W +Q E E
 
 |-----------------------------|----------------------------|
 |-----------------------------|----------------------------|
 |-12--11h12p11-9---7----------|-----------------------9s16-|
 |-------------------------7---|-7h9-------------(9)--------|
 |-----------------------------|----------------------------|
 |-----------------------------|----------------------------|

Main Riff/Verse #2
1[E5]2/8[(E5)]
>
H. +H. +H. +H.
 
 |-----------------------------|------------------------------|
 |-----------------------------|------------------------------|
 |-----------------------------|------------------------------|
 |--2------------(2)-----------|--(2)-----------(2)-----------|
 |--2------------(2)-----------|--(2)-----------(2)-----------|
 |--0------------(0)-----------|--(0)-----------(0)-----------|

|
| >
| H. +H. +H. +H.
 
 |-----------------------------|------------------------------|
 |-17-----------(17)-----------|-(17)----------(17)-----------|
 |-----------------------------|------------------------------|
 |-----------------------------|------------------------------|
 |-----------------------------|------------------------------|
 |-----------------------------|------------------------------|

|
| Gtr V
| Q E E E E E E E E E E Q E E E E E E E E E E
 
 |----------------0------------|-----------------0------------|
 |----------0--------0---0-----|-----------0--------0---0-----|
 |--------3---3--------3---3---|---------3---3--------3---3---|
 |--2---2--------------------2-|---2---2--------------------2-|
 |-----------------------------|------------------------------|
 |-----------------------------|------------------------------|

N.(E)
W W
 
 |------------------------|------------------------|
 |------------------------|------------------------|
 |------------------------|------------------------|
 |------------------------|------------------------|
 |------------------------|------------------------|
 |------------------------|------------------------|

|
| W W
 
 |------------------------|------------------------|
 |------------------------|------------------------|
 |------------------------|------------------------|
 |------------------------|------------------------|
 |------------------------|------------------------|
 |------------------------|------------------------|

|
| Q E E E E E E E E E E Q E E E E E E E E E E
 
 |------------0-----------|------------0-----------|
 |--------0-----0---0-----|--------0-----0---0-----|
 |------3---3-----3---3---|------3---3-----3---3---|
 |-2--2-----------------2-|-2--2-----------------2-|
 |------------------------|------------------------|
 |------------------------|------------------------|

$$
Gtrs I, II
Q E E E E e. S E E E E Q E E E E e. S E E E E 4x
||--------------------------------|---------------------------------||
||o-------------------------------|--------------------------------o||
||--------------------------------|---------------------------------||
||--------------------------------|---------------------------------||
||o-2--2--------5-7------7\-------|-2--2--------5-7------7\

Important: The song above is NOT stored on the Chordie server. The original song is hosted at www.xguitar.com. Chordie works as a search engine and provides on-the-fly formatting. Chordie does not index songs against artists'/composers' will. To remove this song please click here.

Text color:
Chord color:
Chord grids: 
Font size:    
Page size: 

A5 A5/E Ab+5 Am B5 Bm Bm6 D D#m D5 Db5 Dbm Dm Dsus4 E E5 Em Esus4 Fm
Rate #1 of 1 versions

Login - add to songbook

SHARE PAGE  




You need to log in to post comments