Guitar Tabs, Chords and Lyrics
Major upgrade!! After one year development the new version of Chordie is now online! Please give feedback.


The Leper Affinity  Opeth

As recorded by Opeth
From the 2001 Album BLACKWATER PARK
Words and Music by Mikael Åkerfeldt
Arranged by Opeth
Gtr I (E A D G B E) - 'Left'
Gtr II (E A D G B E) - 'Right'
Gtr III (E A D G B E) - 'Center'
Gtr IV (E A D G B E) - 'Center'
Gtr V (E A D G B E) - 'Clean'
Gtr VI (E A D G B E) - 'Piano'
Intro Pre-Verse/Verse
Q=100
$
N.C.(E5) D EbD N.C.
[6/4] Gtrs I, II
Wx7 S S S S S S S S S S S S S E E. E S S S S 7x
 
 |----------------||-------------------------------------------------------||
 |----------------||o-----------------------------------------------------o||
 |----------------||--9s10--10-10-10-10-10s=9--9-9-x-x-7s8-7---------------||
 |----------------||--9-(9)--9--9--9--9--9-(9)-9-9-x-x-4s5-4---------------||
 |----------------||o-7-(7)--7--7--7--7--7-(7)-7-7-x-x-5s6-5--6\-------5--o||
 |----------------||---------------------------------------------0-3-6-----||

N.C.(E5) D EbD N.C.
12/8
S S S S S S S S S S S S S E E. E S S S S
 
 |----------------------------------------------------|
 |----------------------------------------------------|
 |-9s10--10-10-10-10-10s=9--9-9-x-x-7s8-7-------------|
 |-9-(9)--9--9--9--9--9-(9)-9-9-x-x-4s5-4-------------|
 |-7-(7)--7--7--7--7--7-(7)-7-7-x-x-5s6-5--6\-------5-|
 |--------------------------------------------0-3-6---|

Bridge
[G#5]Gtr I[E] [B] [Bb5]
E S S S S E. E. H.
 
 ||----------------------------------------------------------|
 ||o---------------------------------------------------------|
 ||----------------------------------------------------------|
 ||--6-6-6-6-6--------------8--------------------------------|
 ||o-6-6-6-6-6--------------8--------------------------------|
 ||--4-4-4-4-4-0----/7------6--------------------------------|

|
| Gtr II
| E S S S S E. E. E. E. E. E.
 
 ||--------------------------------0---------0------0--------|
 ||o-------------------------------0---------0------0--------|
 ||--------------------------------7---------7------7--------|
 ||--6-6-6-6-6--------------8------8---------8------8--------|
 ||o-6-6-6-6-6--------------8--------------------------------|
 ||--4-4-4-4-4-0----/7------6--------------------------------|

|
| Gtr III
| E S S S S E S S S S E S S S S E S S S S
 
 ||----------------------------------------------------------|
 ||o---------------------------------------------------------|
 ||----------------------------------------------------------|
 ||--9-9-9-9-9-9--8--8--8-8-8--12-12--12-12-12--12-12--12-12-|
 ||o---------------------------------------------------------|
 ||--7-7-7-7-7-7--6--6--6-6-6--10-10--10-10-10--10-10--10-10-|

To Coda
[Bb] E S S S S [G#] E. S S S [D] E S S S S E S S S S 4x
 
 |--------------------------------------------------------||
 |-11-11-11-11-11--9-------------------------------------o||
 |---------------------------------7-7-7-7-7-7-7-7-7-7----||
 |--8--8--8--8--8--6--------------------------------------||
 |------------------------8--7--6--5-5-5-5-5-5-5-5-5-5---o||
 |--------------------------------------------------------||

|
| E S S S S E. S S S E S S S S E S S S S 4x
 
 |--------------------------------------------------------||
 |-11-11-11-11-11--9-------------------------------------o||
 |---------------------------------7-7-7-7-7-7-7-7-7-7----||
 |--8--8--8--8--8--6--------------------------------------||
 |------------------------8--7--6--5-5-5-5-5-5-5-5-5-5---o||
 |--------------------------------------------------------||

|
| E S S S S E S S S S E S S S S E S S S S 4x
 
 |--------------------------------------------------------||
 |-------------------------------------------------------o||
 |-15-15-15-15-15-13--13-13-13-13-13S7-7-7-7-7-7-7-7-7----||
 |--------------------------------------------------------||
 |-13-13-13-13-13-11--11-11-11-11-11S5-5-5-5-5-5-5-5-5---o||
 |--------------------------------------------------------||

N.C.
E S S S S S S S S S S T T S S S E E S S E
 
 |-------------------------------------------|
 |-------------------------------------------|
 |-------------7---8-7-----------------------|
 |---6-7---6-7---------9-8h9p8-5-8-----------|
 |-------5-------------------------2-1-x-2---|
 |-4---------------------------------------1-|

|
| E S S S S S S S S S S T T S S S E E S S E
 
 |-------------------------------------------|
 |-------------------------------------------|
 |-------------7---8-7-----------------------|
 |---6-7---6-7---------9-8h9p8-5-8-----------|
 |-------5-------------------------5-4-x-2---|
 |-4---------------------------------------1-|

Pre-Verse/Verse 2
[E5]Gtrs[E5/F#] I, II[E5/GAsus2] [Bb]
E S E S E S E S E S S S S E S S S S
 
 ||------------------------------------------|
 ||o-----------------------------------------|
 ||------------------------------------------|
 ||--2-2-2---2-2-2---------------------------|
 ||o-2-2-2---2-2-2-2---2-5-5-5-5-5-5-5-5-5-5-|
 ||--0-0-2---2-3-3-5---5-6-6-6-6-6-6-6-6-6-6-|

|
| Gtr IV
| E S S S S E S S S S E S S S S E S S S S
 
 ||------------------------------------------|
 ||o-----------------------------------------|
 ||--9-9-9-9-9-9-9-9-9-9-9-7-7-7-7-7-7-7-7-7-|
 ||------------------------------------------|
 ||o-7-7-7-7-7-7-7-7-7-7-7-5-5-5-5-5-5-5-5-5-|
 ||------------------------------------------|

E F# G B Bb A N.C.
S S S S S S S S S E. E S S S S E S S S S 3x
 
 |----------------------------------------------------------------||
 |---------------------------------------------------------------o||
 |-/9-9--9-11-11-11-12-12-12--------------------------------------||
 |---------------------------/9---------8--8--8--8--8-7\----------||
 |-/7-7--7--9--9--9-10-10-10-------------------------------------o||
 |---------------------------/7---------6--6--6--6--6-5\-0-2-3-5--||

|
| E S S S S E S S S S E S S S S E S S S S 3x
 
 |----------------------------------------------------------------||
 |---------------------------------------------------------------o||
 |-12---12-12-12-12-12----12-12--12-12-12-10-10-10-10-9--9-9-9-9--||
 |----------------------------------------------------------------||
 |-10---10-10-10-10-10----10-10--10-10-10--8--8--8--8-7--7-7-7-7-o||
 |----------------------------------------------------------------||

[E5] E S [E5/F#]E S [E5/G] E S [Asus2]E S [Bb] E S S S S E S S S S
 
 |-----------------------------------------------------|
 |-----------------------------------------------------|
 |-----------------------------------------------------|
 |--2--2-2----2--2--2----------------------------------|
 |--2--2-2----2--2--2-2----2--5--5-5--5-5--5--5-5--5-5-|
 |--0--0-2----2--3--3-5----5--6--6-6--6-6--6--6-6--6-6-|

|
| E S S S S E S S S S E S S S S E S S S S
 
 |-----------------------------------------------------|
 |-----------------------------------------------------|
 |--9--9-9--9-9--9--9-9--9-9--9--7-7--7-7--7--7-7--7-7-|
 |-----------------------------------------------------|
 |--7--7-7--7-7--7--7-7--7-7--7--5-5--5-5--5--5-5--5-5-|
 |-----------------------------------------------------|

|
| Gtr III
| E E E E E E E E E E E E
 
 |-----------------------------------------------------|
 |----12--------12------12------12--------12------12---|
 |-15------15------15--------15------15------15--------|
 |-----------------------------------------------------|
 |-----------------------------------------------------|
 |-----------------------------------------------------|

E F# G B Bb A N.C.
S S S S S S S S S E. E S S S S E S S S S
 
 |-------------------------------------------------------------------|
 |-------------------------------------------------------------------|
 |-/9-9--9-11-11-11-12-12-12-----------------------------------------|
 |---------------------------/9---------8--8--8--8--8--7\------------|
 |-/7-7--7--9--9--9-10-10-10-----------------------------------------|
 |---------------------------/7---------6--6--6--6--6--5\--0-2--3-5--|

|
| E S S S S E S S S S E S S S S E S S S S
 
 |-------------------------------------------------------------------|
 |-------------------------------------------------------------------|
 |-12---12-12-12-12-12----12-12--12-12-12-10-10-10-10--9---9-9--9-9--|
 |-------------------------------------------------------------------|
 |-10---10-10-10-10-10----10-10--10-10-10--8--8--8--8--7---7-7--7-7--|
 |-------------------------------------------------------------------|

|
| E E E E E E E E E E E E
 
 |-------------------------------------------------------------------|
 |------12----------12-----------12-------12----------12-------12----|
 |-15---------15----------15-----------15-------15--------15---------|
 |-------------------------------------------------------------------|
 |-------------------------------------------------------------------|
 |-------------------------------------------------------------------|

[E5] E S [E5/F#]E S [E5/G] E S [Asus2]E S [Bb] E S S S S E S S S S
 
 ||------------------------------------------------------|
 ||o-----------------------------------------------------|
 ||------------------------------------------------------|
 ||---2--2-2----2--2--2----------------------------------|
 ||o--2--2-2----2--2--2-2----2--5--5-5--5-5--5--5-5--5-5-|
 ||---0--0-2----2--3--3-5----5--6--6-6--6-6--6--6-6--6-6-|

|
| E S S S S E S S S S E S S S S E S S S S
 
 ||------------------------------------------------------|
 ||o-----------------------------------------------------|
 ||---9--9-9--9-9--9--9-9--9-9--9--7-7--7-7--7--7-7--7-7-|
 ||------------------------------------------------------|
 ||o--7--7-7--7-7--7--7-7--7-7--7--5-5--5-5--5--5-5--5-5-|
 ||------------------------------------------------------|

|
| E E E E E E E E E E E E
 
 ||------------------------------------------------------|
 ||o----12--------12------12------12--------12------12---|
 ||--15------15------15--------15------15------15--------|
 ||------------------------------------------------------|
 ||o-----------------------------------------------------|
 ||------------------------------------------------------|

E F# G B Bb A N.C.
S S S S S S S S S E. E S S S S E S S S S
 
 |-------------------------------------------------------------------||
 |------------------------------------------------------------------o||
 |-/9-9--9-11-11-11-12-12-12-----------------------------------------||
 |---------------------------/9---------8--8--8--8--8--7\------------||
 |-/7-7--7--9--9--9-10-10-10----------------------------------------o||
 |---------------------------/7---------6--6--6--6--6--5\--0-2--3-5--||

|
| E S S S S E S S S S E S S S S E S S S S
 
 |-------------------------------------------------------------------||
 |------------------------------------------------------------------o||
 |-12---12-12-12-12-12----12-12--12-12-12-10-10-10-10--9---9-9--9-9--||
 |-------------------------------------------------------------------||
 |-10---10-10-10-10-10----10-10--10-10-10--8--8--8--8--7---7-7--7-7-o||
 |-------------------------------------------------------------------||

|
| E E E E E E E E E E E E
 
 |-------------------------------------------------------------------||
 |------12----------12-----------12-------12----------12-------12---o||
 |-15---------15----------15-----------15-------15--------15---------||
 |-------------------------------------------------------------------||
 |------------------------------------------------------------------o||
 |-------------------------------------------------------------------||

Interlude
E5 N.C.
6/8
Gtrs I, II
 
 PM------------| PM------------|

S E S E S E S E S S S S S S S S S S S S S S S S S S S S S S S S
 
 |---------------------||--------------------------|-------------------------|
 |---------------------||o-------------------------|-------------------------|
 |---------------------||--------------------------|-------------------------|
 |--2-----2---2----2---||--------------5-6-5-------|-------------5-6-5-9-----|
 |--2-----2---2----2---||o---------6-7-------7-6-7-|---------6-7---------8-7-|
 |--0-----0---0----0---||--6p0-0-0-----------------|-6p0-0-0-----------------|

|
| Gtr III
| S S Q Q. H. H.
 
 |---------------------||--------------------------|-------------------------|
 |---------------------||o-------------------------|-------------------------|
 |-15------------------||--------------------------|-------------------------|
 |---------------------||--------------------------|-------------------------|
 |---------------------||o-------------------------|-------------------------|
 |---------------------||--------------------------|-------------------------|
 PM------------|

S S S S S S S S S S S S S S S S S S S S S S S S 4x
 
 |-------------------------|--------------------------||
 |-------------------------|-------------------------o||
 |-------------------------|-5-4---4---4---4---4---4--||
 |-------------5-6-5-------|-----7---5---4------------||
 |---------6-7-------7-----|-----------------7---6---o||
 |-6p0-0-0-------------8-7-|--------------------------||

Guitar Solo
C5 A5 E5 N.C.
12/8
Gtr IV
~~~ ~~~
Q. e e e T +T +S S S S S S S +S +E.
 
 |---------------------------------------------------------------------|
 |---------------------------------------------------------------------|
 |-/9----------/9-7--------7b9==(7)r-(7)----7--------------------------|
 |--------------------10-----------------10---10-9-10-9-(9)b10r(9)-----|
 |---------------------------------------------------------------------|
 |---------------------------------------------------------------------|

|
| Gtrs I, II
| E S S S S E S S S S E S S S S S S S S S S
 
 |---------------------------------------------------------------------|
 |---------------------------------------------------------------------|
 |--5--5-5-5-5---------------------------------------------------------|
 |--5--5-5-5-5--7-7-7--7-7-2--------------2-2--2-2--6-5---------5------|
 |--3--3-3-3-3--7-7-7--7-7-2--------------2-2--2-2-------7---------6-7-|
 |--------------5-5-5--5-5-0--------------0-0--0-0---------------------|

C5 A5 E5 N.C.
PM--|
S S S S S S T T S S S S S S S S S S S Q.
 
 |--------------------------------------------------------------------|
 |----------------------------------------10-12-13-15-15b17-----------|
 |----------9-11-11h12p11-9-11----9-11-12-----------------------------|
 |--------9--------------------12-------------------------------------|
 |-7-9-10-------------------------------------------------------------|
 |--------------------------------------------------------------------|

|
| E S S S S E S S S S E S S S S S S S S S S
 
 |--------------------------------------------------------------------|
 |--------------------------------------------------------------------|
 |-5----5-5-5--5------------------------------------------------------|
 |-5----5-5-5--5--7-------7--7--7-7--2-----2--2--2--2--6----5---5-----|
 |-3----3-3-3--3--7-------7--7--7-7--2-----2--2--2--2---------7---6-7-|
 |----------------5-------5--5--5-5--0-----0--0--0--0-----------------|

C5 A5 E5 N.C.
~~~~~~~~~~~~~ PM|
T T S S S S. +T +S +E E. T T S S S S S S S Q
 
 |--------------------------------------------------------------------------------|
 |-12h15p12----12-----------------------------------------------------------------|
 |----------14----14b16r==(14)-(14)-(14)---12------11h12p11-9---------------------|
 |------------------------------------------------------------9-------------------|
 |--------------------------------------------------------------10-9-7h9-10-------|
 |--------------------------------------------------------------------------------|

|
| E S S S S E S S S S E S S S S S S S S S S
 
 |--------------------------------------------------------------------------------|
 |--------------------------------------------------------------------------------|
 |--5--------5--5--5----5---------------------------------------------------------|
 |--5--------5--5--5----5--------7-------7--7--7-7--2-------2-2--2-2-6-5----5-----|
 |--3--------3--3--3----3--------7-------7--7--7-7--2-------2-2--2-2------7---6-7-|
 |-------------------------------5-------5--5--5-5--0-------0-0--0-0--------------|

C5 A5 E5 N.C.
~
e E S S S +S S S S S S S S S S S S S S S S S
 
 |--------------------------------------------------------------|
 |--------------------------------------------------------------|
 |-9-7-------------------------------------------------7---7----|
 |-------7----7b8r(7)----7---------------------------9---9------|
 |---------10---------10---10s9-10p9----9----9-10s12------------|
 |-----------------------------------10---10--------------------|

|
| E S S S S E S S S S E S S S S S S S S S S
 
 |--------------------------------------------------------------|
 |--------------------------------------------------------------|
 |-5-5-5-5--5---------------------------------------------------|
 |-5-5-5-5--5-7--------7-7--7-7--2----2-2--2-2--6--5---5--------|
 |-3-3-3-3--3-7--------7-7--7-7--2----2-2--2-2-------7---6-7----|
 |------------5--------5-5--5-5--0----0-0--0-0------------------|

C5 A5 E5 N.C.
~~~
S S S S S S Q +S S Q +S +S Q.
 
 |----------------------------------------------------------------|
 |-------12-13-12-------------------------------------------------|
 |----12----------12----------------------------------------------|
 |-14----------------14-----(14)-x-9-----(9)-(9)b10-[9]-----------|
 |----------------------------------------------------------------|
 |----------------------------------------------------------------|

|
| E S S S S E S S S S E S S S S S S S S S S
 
 |----------------------------------------------------------------|
 |----------------------------------------------------------------|
 |--5-----5--5--5--5----------------------------------------------|
 |--5-----5--5--5--5--7-7-7---7--7-2-2-2--2---2------6--5---5-----|
 |--3-----3--3--3--3--7-7-7---7--7-2-2-2--2---2-----------7---6-7-|
 |--------------------5-5-5---5--5-0-0-0--0---0-------------------|

C5 A5 E5 N.C.
~~~ ~~~
S +S S E S Q. S S S S S S S S S E.
 
 |---------------------------------------------14-15p14-------------|
 |------------------------------------17-15h17----------15----------|
 |---------------------------------16----------------------16-------|
 |-7pb9r(7)p5-7h==9-10----------14----------------------------------|
 |------------------------------------------------------------------|
 |------------------------------------------------------------------|

|
| E S S S S E S S S S E S S S S S S S S S S
 
 |------------------------------------------------------------------|
 |------------------------------------------------------------------|
 |-5--------5-5-5-5-------------------------------------------------|
 |-5--------5-5-5-5--7--7-7-7-7--2-----2--2--2--2--6--5-----5-------|
 |-3--------3-3-3-3--7--7-7-7-7--2-----2--2--2--2--------7-----6-7--|
 |-------------------5--5-5-5-5--0-----0--0--0--0-------------------|

C5 A5 E5 N.C.
~~~~~~ ~~~~~~~
 
 |----4:3-----|

E Q Q S S S S T T S S S S E Q
 
 |---12---------------------12-14-15-14h15p14-12h14p==12--------------------|
 |---15b17-------15pb17------------------------------------15---------------|
 |------------------------------------------------------------14---12-------|
 |--------------------------------------------------------------------------|
 |--------------------------------------------------------------------------|
 |--------------------------------------------------------------------------|

|
| E S S S S E S S S S E S S S S S S S S S S
 
 |--------------------------------------------------------------------------|
 |--------------------------------------------------------------------------|
 |-5--5----5-5-5------------------------------------------------------------|
 |-5--5----5-5-5--7-----7-7--7--7--2-----2-----2----2----2-----6-5----5-----|
 |-3--3----3-3-3--7-----7-7--7--7--2-----2-----2----2----2----------7---6-7-|
 |----------------5-----5-5--5--5--0-----0-----0----0----0------------------|

6[C5]/8[A5]
~~~~~~~~~~~~~~
E E S S E E +E
 
 |-------------------------------------|
 |---12--------------------------------|
 |---14b16---14-12---------------------|
 |-----------------14------------------|
 |--------------------14b15====(14)r---|
 |-------------------------------------|

|
| E S S S S E S S S S
 
 |-------------------------------------|
 |-------------------------------------|
 |-5--5----5--5--5---------------------|
 |-5--5----5--5--5--7--7-----7---7---7-|
 |-3--3----3--3--3--7--7-----7---7---7-|
 |------------------5--5-----5---5---5-|

N.C.
9/8 12/8
Gtr I
S S S S S S S S S S S S S S S S S S W.
 
 |-13-----10----------10---------------------------------------------|----------|
 |-------------12--------12-9-12-----9----9--------------------------|----------|
 |-------------------------------------10---10--7--10---7-----7------|----------|
 |---------------------------------------------------------9----9--6-|----------|
 |-------------------------------------------------------------------|---8------|
 |-------------------------------------------------------------------|----------|

|
| Gtr II
| S S S S S S S S S S S S S S S S S S W.
 
 |-------------------------------------------7-10--10--13-10---------|----------|
 |--------------------------------------6-9------------------12-9----|----------|
 |-----------------------------4-----7----------------------------10-|---7------|
 |------------------------3-6----------------------------------------|----------|
 |--------------2------5---------------------------------------------|----------|
 |--1------4---------------------------------------------------------|----------|

|
| Gtr IV
| S +S +Q Q. +Q. +W.
 
 |-------------------------------------------------------------------|----------|
 |-------------------------------------------------------------------|----------|
 |-14b16r(14)-(14)b16---------14b16===============(14)---------------|-(14)r----|
 |-------------------------------------------------------------------|----------|
 |-------------------------------------------------------------------|----------|
 |-------------------------------------------------------------------|----------|

Breakdown
N.C.(Em)
6/8
Gtr I
PM--| PM--|
E S T T S S S S S S S S E S T T S S S S S S S S S S Q Q.
 
 ||----------------------------||-------------------------|-------------|
 ||o--------------------------o||-------------------------|-------------|
 ||----------------------------||-------------------------|-------------|
 ||------5h6p5---5-------------||-----5h6p5---5-----------|-------------|
 ||o---7-------7----6-7-------o||---7-------7---6-7-------|-------------|
 ||--0------------------7-8-5--||-0-----------------7-8-5-|-0-----------|

|
| Gtr II
| PM--| PM--|
| e Q E. S S S E S T T S S S S S S S S S S Q Q.
 
 ||----------------------------||-------------------------|-------------|
 ||o--------------------------o||-------------------------|-------------|
 ||----------------------------||-------------------------|-------------|
 ||----------------------------||-----5h6p5---5-----------|-------------|
 ||o--------------------------o||---7-------7---6-7-------|-------------|
 ||--0------------------7-8-5--||-0-----------------7-8-5-|-0-----------|

N.C.(Fm)
Gtrs I, II
PM--|
E S T T S S S S S S S S 8x E S e S S S S S S S 4x
 
 ||---------------------------||-||-----------------------||
 ||o-------------------------o||-||o---------------------o||
 ||---------------------------||-||-----------------------||
 ||------5h6p5---5------------||-||------3-3h4p3p1-3-1----||
 ||o---7-------7---6-7-------o||-||o-------------------4-o||
 ||--0-----------------7-8-5--||-||--1-1------------------||

N.C.(Em) N.C.(Fm)
PM--|
E S T T S S S S S S S S 8x E S e S S S S S S S 3x
 
 ||---------------------------||-||-----------------------||
 ||o-------------------------o||-||o---------------------o||
 ||---------------------------||-||-----------------------||
 ||------5h6p5---5------------||-||------3-3h4p3p1-3-1----||
 ||o---7-------7---6-7-------o||-||o-------------------4-o||
 ||--0-----------------7-8-5--||-||--1-1------------------||

A5 B5 C5 D5 N.C.
S S S S S S S S S S S S E. E. E. E. E E E E E E
 
 |-------------------------|-------------|-------------|
 |-------------------------|-------------|-------------|
 |-------------------------|----------2--|-------------|
 |-1-----------------------|-2--4--5--0--|-------5s7-9-|
 |---4-3-4-3-1-3-1-----2-3-|-0--2--3-----|-0-2-3-------|
 |-----------------4-3-----|-------------|-------------|

Acoustic Interlude
1[C]2/8[Bm] [F] [Am]
Gtr IV
H E E S S S S H S S S S E Q S S S E. +H
 
 ||-----------------------------|-----------------------------------||
 ||o----------------------------|----------------------------------o||
 ||-----------------------------|-----------------------------------||
 ||---10-----9-7--9h10p9p7-9----|---9h10p9p7------------------------||
 ||o----------------------------|------------7-5--3h5--5s7--(7)----o||
 ||-----------------------------|-----------------------------------||

|
| Gtr V
| H. H. H. H.
 
 ||--^-8---------^7-------------|-^-8-----------------^5------------||
 ||o-^-8---------^7-------------|-^10-----------------^5-----------o||
 ||--^-9---------^7-------------|-^10-----------------^5------------||
 ||--^10---------^9-------------|-^10-----------------^7------------||
 ||o-^10---------^9-------------|-^-8-----------------^7-----------o||
 ||--^-8---------^7-------------|---------------------^5------------||

[C]Gtr I[Bm] [F] [Am]
H E E S S S S H S S S S E Q S S S E. +H
 
 ||-----------------------------|-----------------------------------||
 ||o----------------------------|----------------------------------o||
 ||-----------------------------|-----------------------------------||
 ||---10-----9-7--9h10p9p7-9----|---9h10p9p7------------------------||
 ||o----------------------------|------------7-5--3h5--5s7--(7)----o||
 ||-----------------------------|-----------------------------------||

|
| Gtr II
| H E E S S S S H S S S S E Q S S S E. +H
 
 ||-----------------------------|-----------------------------------||
 ||o----------------------------|----------------------------------o||
 ||----9-----7-5--7h=9p7p5-7----|---9h10p9p7-5-4--2h4--4s5--(5)-----||
 ||-----------------------------|-----------------------------------||
 ||o----------------------------|----------------------------------o||
 ||-----------------------------|-----------------------------------||

|
| Gtr V
| H. H. H. H.
 
 ||--^-8---------^7-------------|-^-8-----------------^5------------||
 ||o-^-8---------^7-------------|-^10-----------------^5-----------o||
 ||--^-9---------^7-------------|-^10-----------------^5------------||
 ||--^10---------^9-------------|-^10-----------------^7------------||
 ||o-^10---------^9-------------|-^-8-----------------^7-----------o||
 ||--^-8---------^7-------------|---------------------^5------------||

[C] H E E [Bm] S S S S H [F] S S S S E Q S S [Am] S E. +H
 
 |----------------------------------|------------------------------------|
 |----------------------------------|------------------------------------|
 |----------------------------------|------------------------------------|
 |--10--------9-7--9h10p9p7-9-------|---9h10p9p7-------------------------|
 |----------------------------------|------------7--5---3h5--5s7--(7)----|
 |----------------------------------|------------------------------------|

|
| Q. Q. Q. Q. Q. Q. H.
 
 |--------12------10----------------|------------------------------------|
 |--10----13------12----------12----|--13----------12-------13-----------|
 |---9-------------------------9----|---7----------12--------9-----------|
 |----------------------------------|------------------------------------|
 |----------------------------------|------------------------------------|
 |----------------------------------|------------------------------------|

|
| H. H. H. H.
 
 |-^-8------------^7----------------|-^-8-------------------^5-----------|
 |-^-8------------^7----------------|-^10-------------------^5-----------|
 |-^-9------------^7----------------|-^10-------------------^5-----------|
 |-^10------------^9----------------|-^10-------------------^7-----------|
 |-^10------------^9----------------|-^-8-------------------^7-----------|
 |-^-8------------^7----------------|-----------------------^5-----------|

[C] H E E [Bm] S S S S H [F] S S S S E Q S S [Am] S E. +H
 
 |----------------------------------|------------------------------------|
 |----------------------------------|------------------------------------|
 |----------------------------------|------------------------------------|
 |--10--------9-7--9h10p9p7-9-------|---9h10p9p7-------------------------|
 |----------------------------------|------------7--5---3h5--5s7--(7)----|
 |----------------------------------|------------------------------------|

|
| Q. Q. Q. Q. Q. Q. H.
 
 |--------12------10----------------|------------------------------------|
 |--10----13------12----------12----|--13----------12-------13-----------|
 |---9-------------------------9----|---7--------------------------------|
 |----------------------------------|---------------9--------7-----------|
 |----------------------------------|------------------------------------|
 |----------------------------------|------------------------------------|

|
| H. H. H. H.
 
 |-^-8------------^7----------------|-^-8-------------------^5-----------|
 |-^-8------------^7----------------|-^10-------------------^5-----------|
 |-^-9------------^7----------------|-^10-------------------^5-----------|
 |-^10------------^9----------------|-^10-------------------^7-----------|
 |-^10------------^9----------------|-^-8-------------------^7-----------|
 |-^-8------------^7----------------|-----------------------^5-----------|

[Asus2] >[Csus2] [Asus2] [Csus2]
+H. +H.
 
 |-------------------------------------------------------|
 |-------------------------------------------------------|
 |-------------------------------------------------------|
 |-------------------------------------------------------|
 |--(7)------------------------(7)-----------------------|
 |-------------------------------------------------------|

|
| >
| +H. +H.
 
 |-------------------------------------------------------|
 |-(13)-----------------------(13)-----------------------|
 |-------------------------------------------------------|
 |--(7)------------------------(7)-----------------------|
 |-------------------------------------------------------|
 |-------------------------------------------------------|

|
| S S S S S S S S S S S S S S S S S S S S S S S S
 
 |-------------------------------------------------------|
 |----------0--------------------------0-----------------|
 |--------2---2---------0------------2---2---------0-----|
 |------2-------2-----0------------2-------2-----0-------|
 |---0------------2h3-----2h3---0------------2h3-----2h3-|
 |-------------------------------------------------------|

[Asus2]W [Csus2] [Asus2] [Csus2] 3x
 
 ||----------------------------------------------------||
 ||o--------------------------------------------------o||
 ||----------------------------------------------------||
 ||----------------------------------------------------||
 ||o--------------------------------------------------o||
 ||----------------------------------------------------||

|
| W 3x
 
 ||----------------------------------------------------||
 ||o--------------------------------------------------o||
 ||----------------------------------------------------||
 ||----------------------------------------------------||
 ||o--------------------------------------------------o||
 ||----------------------------------------------------||

|
| S S S S S S S S S S S S S S S S S S S S S S S S 3x
 
 ||----------------------------------------------------||
 ||o-------0-----------------------0------------------o||
 ||------2---2---------0---------2---2---------0-------||
 ||----2-------2-----0---------2-------2-----0---------||
 ||o-0-----------2h3-----2h3-0-----------2h3-----2h3--o||
 ||----------------------------------------------------||

[Em/Db]Gtr V[Em/C] [Em/Bb] [Em/G] [E5]
S S S S S S S S S S S S S S S S S S E S S E 4x
 
 ||-----------------------------------------------||-|
 ||o-------0-----------0-------------------------o||-|
 ||------0---0-------0---0-------0-----0----------||-|
 ||----2-------2---2-------2---2-----2-----2-2-2--||-|
 ||o-4-----------3-----------1-------------2-2-2-o||-|
 ||--------------------------------3-----0-0-0-0--||-|

[Asus2]S S S S S S [Csus2]S S S S S S [Asus2]S S S S S S [Csus2]S S S S S S 4x
 
 ||----------------------------------------------------||
 ||o-------0-----------------------0------------------o||
 ||------2---2---------0---------2---2---------0-------||
 ||----2-------2-----0---------2-------2-----0---------||
 ||o-0-----------2h3-----2h3-0-----------2h3-----2h3--o||
 ||----------------------------------------------------||

[Em/Db]S S S S S S [Em/C]S S S S S S [Em/Bb]S S S [Em/G]S S S [E5]E S S E
 
 ||-----------------------------------------------||
 ||o-------0-----------0-------------------------o||
 ||------0---0-------0---0-------0-----0----------||
 ||----2-------2---2-------2---2-----2-----2-2-2--||
 ||o-4-----------3-----------1-------------2-2-2-o||
 ||--------------------------------3-----0-0-0-0--||

Interlude - Part 2
[Dbm]Gtr I[C] [BbbGm6] [E5] [Dbm] [C] [BbbGm6] [E5]
~~~~~~~~~~~~~~~~~~~~~~~~~~~~~~~~ ~~~
Q. Q. Q. Q. Q. Q. Q +E Q.
 
 |-----------------------|------------------------------|
 |-----------------------|------------------------------|
 |-----------------------|------------------------------|
 |-6---------5-----------|------------------------------|
 |------7-----------2----|-1---------4------(4)b5-[3]---|
 |-----------------------|------3-----------------------|

|
| Gtr IV
| Q. Q. E. E. Q. Q. Q. E. E. Q.
 
 |-----------------------|------------------------------|
 |-----------------------|------------------------------|
 |-----------------------|------------------------------|
 |-2----2----2--(2)-2----|-2----2----2--(2)--------2----|
 |-4----3----1--(1)-2----|-4----3----1--(1)--------2----|
 |---------------3--0----|---------------3---------0----|

[Dbm] [C] [BbbGm6] [E5] [Dbm] [C] [BbbGm6] [E5]\3
~~~~~~~~~~~~~~~~~~~~~~~~~~~~~~~~~~~~~
Q. Q. Q. Q. Q. Q. Q. Q.
 
 |-----------------------|-----------------------|
 |-----------------------|-----------------------|
 |-----------------------|-----------------------|
 |-6---------5-----------|-----------------------|
 |------7-----------2----|-1---------1-----------|
 |-----------------------|------3-----------0----|

|
| Q. Q. E. E. Q. Q. Q. E. E. Q.
 
 |-----------------------|-----------------------|
 |-----------------------|-----------------------|
 |-----------------------|-----------------------|
 |-2----2----2--(2)-2----|-2----2----2--(2)-2----|
 |-4----3----1--(1)-2----|-4----3----1--(1)-2----|
 |---------------3--0----|---------------3--0----|

[Dbm] E. S E [C] E E E [Bbb5Gm6] E. S E [E5] Q.
 
 |--------------------------------------|
 |--------------------------------------|
 |--------13-12-------------------------|
 |-11--15--------14---------------14----|
 |------------------15-13--15h=16-------|
 |--------------------------------------|

|
| Q. Q. E. E. Q.
 
 |--------------------------------------|
 |--------------------------------------|
 |--------------------------------------|
 |--2---------2---------2--(2)-----2----|
 |--4---------3---------1--(1)-----2----|
 |--------------------------3------0----|

[Dbm] S S S S S S [C] S S S S S S [Bbb5] S S S [Gm6] S S S [E5] Q.
 
 |-----------------16-15--------------------------------------------|
 |--------------18--------17----------------------------------------|
 |-----------18--------------17-------------------------------------|
 |-----15-18--------------------17-----------------15h=17p15-14-----|
 |-16------------------------------19-15-13--15-16------------------|
 |------------------------------------------------------------------|

|
| Q. Q. E. E. Q.
 
 |------------------------------------------------------------------|
 |------------------------------------------------------------------|
 |------------------------------------------------------------------|
 |--2------------------2------------------2--------(2)--------2-----|
 |--4------------------3------------------1--------(1)--------2-----|
 |--------------------------------------------------3---------0-----|

[Dbm]Gtr I[C] [Bbb5] [Gm6] [E5]
E. S E E E E E. S E Q.
 
 |---------------------------------------|
 |---------------------------------------|
 |--------13-12--------------------------|
 |-11--15--------14----------------14----|
 |------------------15--13--15h=16-------|
 |---------------------------------------|

|
| Gtr II
| Q. Q. E. E. Q.
 
 |---------------------------------------|
 |---------------------------------13----|
 |-10---------9--------/12--15-----------|
 |---------------------------------------|
 |---------------------------------------|
 |---------------------------------------|

|
| Gtr IV
| Q. Q. E. E. Q.
 
 |---------------------------------------|
 |---------------------------------------|
 |---------------------------------------|
 |--2---------2----------2--(2)-----2----|
 |--4---------3----------1--(1)-----2----|
 |---------------------------3------0----|

[Dbm] S S S S S S [C] S S S S S S [Bbb5] S S S [Gm6] S S S [E5] Q.
 
 |-----------------16-15--------------------------------------------|
 |--------------18--------17----------------------------------------|
 |-----------18--------------17-------------------------------------|
 |-----15-18--------------------17-----------------15h=17p15-14-----|
 |-16------------------------------19-15-13--15-16------------------|
 |------------------------------------------------------------------|

|
| S S S S S S S S S S S S S S S S S S Q.
 
 |-----------------20-19--------------------------------------------|
 |-----------18-21--------20----------------------------------------|
 |--------18-----------------21-------------------------------------|
 |-15--18-----------------------22-----------------15h=17p15-17-----|
 |---------------------------------22-19-13--15-16------------------|
 |------------------------------------------------------------------|

|
| Q. Q. E. E. Q.
 
 |------------------------------------------------------------------|
 |------------------------------------------------------------------|
 |------------------------------------------------------------------|
 |--2------------------2------------------2--------(2)--------2-----|
 |--4------------------3------------------1--------(1)--------2-----|
 |--------------------------------------------------3---------0-----|

Bridge 2
N.C.(Eb5)
6/8
Gtr IV
<
E E E E E E E E E +Q.
 
 |--------------------------------------------|---------------------------------|
 |-17\--(17)\---(17)\---(17)\---(17)\---(17)\-|-(17)\---(17)\---17---(17)-------|
 |--------------------------------------------|---------------------------------|
 |--------------------------------------------|---------------------------------|
 |--------------------------------------------|---------------------------------|
 |--------------------------------------------|---------------------------------|

|
| Gtrs I, II
| S S S S S S S E S E S S S S S S S E S E
 
 |--------------------------------------------|---------------------------------|
 |--------------------------------------------|---------------------------------|
 |--------------------------------------------|---------------------------------|
 |----------------------------9-------9-------|---------------------------9-9---|
 |--------7-------5h==7-------8-------8-------|-----------7------5h7------8-8---|
 |--0h7-------x-----------x---------------7---|---0h==7-------x--------x------7-|

+H. +H.
 
 |-----------------------|------------------------|
 |-(17)------------------|-(17)-------------------|
 |-----------------------|------------------------|
 |-----------------------|------------------------|
 |-----------------------|------------------------|
 |-----------------------|------------------------|

|
| S S S S S S S E S E S S S S S S S E S E
 
 |-----------------------|------------------------|
 |-----------------------|------------------------|
 |-----------------------|------------------------|
 |-----------------9-9---|-----------------9-9----|
 |-------7---5h7---8-8---|-------7---5h7---8-8----|
 |---0h7---x-----x-----7-|---0h7---x-----x-----7--|

Eb5 N.C.(Eb5)
<
+H. Q. Q.
 
 |------------------|-------------------------|
 |-(17)-------------|-17-----------\12--------|
 |------------------|-------------------------|
 |------------------|-------------------------|
 |------------------|-------------------------|
 |------------------|-------------------------|

|
| PM-----|
| S e e S E E E S S S S S S S E S E
 
 |------------------|-------------------------|
 |------------------|-------------------------|
 |------------9-9-9-|-------------------------|
 |------------8-8-8-|-------------------9-9---|
 |------------7-7-7-|------7---5h7------8-8---|
 |---0--0-0-0-------|--0h7---x-------x------7-|

Q. Q. Q. Q.
 
 |--------------------------|--------------------------|
 |-/15-----------\10--------|-/12-----------\8---------|
 |--------------------------|--------------------------|
 |--------------------------|--------------------------|
 |--------------------------|--------------------------|
 |--------------------------|--------------------------|

|
| S S S S S S S E S E S S S S S S S E S E
 
 |--------------------------|--------------------------|
 |--------------------------|--------------------------|
 |--------------------------|--------------------------|
 |--------------------9-9---|-------------------9-9----|
 |-------7---5h7------8-8---|-------7---5h7-----8-8----|
 |---0h7---x-------x------7-|---0h7---x------x------7--|

H.
 
 |--------------------------|
 |-/19----------------------|
 |--------------------------|
 |--------------------------|
 |--------------------------|
 |--------------------------|

|
| PM|
| S S S S S S E S S S S
 
 |--------------------------|
 |--------------------------|
 |--------------------------|
 |--------------------------|
 |-------7---5h7-8\---------|
 |---0h7---x--------6-5-3h5-|

Q. Q. Q. Q.
 
 |--------------------------|--------------------------|
 |-/17-----------\12--------|-/15-----------\10--------|
 |--------------------------|--------------------------|
 |--------------------------|--------------------------|
 |--------------------------|--------------------------|
 |--------------------------|--------------------------|

|
| S S S S S S S E S E S S S S S S S E S E
 
 |--------------------------|--------------------------|
 |--------------------------|--------------------------|
 |--------------------------|--------------------------|
 |--------------------9-9---|--------------------9-9---|
 |-------7---5h7------8-8---|-------7---5h7------8-8---|
 |---0h7---x-------x------7-|---0h7---x-------x------7-|

\0.5_________________________________________|
H. +H +E +E
 
 |--------------------------|-------------------------------|
 |-10-----------------------|-(10)-------------(10)---(10)--|
 |--------------------------|-------------------------------|
 |--------------------------|-------------------------------|
 |--------------------------|-------------------------------|
 |--------------------------|-------------------------------|

|
| PM-|
| S S S S S S S E S E S S S S S S E S S S S
 
 |--------------------------|-------------------------------|
 |--------------------------|-------------------------------|
 |--------------------------|-------------------------------|
 |--------------------9-9---|-------------------------------|
 |----------7---5h7---8-8---|-------7---5h7-8\--------------|
 |--0h====7---x-----x-----7-|---0h7---x----------6--5---3h5-|

Q. Q. Q. Q.
 
 |--------------------------|--------------------------|
 |-/17-----------\12--------|-/15-----------\10--------|
 |--------------------------|--------------------------|
 |--------------------------|--------------------------|
 |--------------------------|--------------------------|
 |--------------------------|--------------------------|

|
| S S S S S S S E S E S S S S S S S E S E
 
 |--------------------------|--------------------------|
 |--------------------------|--------------------------|
 |--------------------------|--------------------------|
 |--------------------9-9---|--------------------9-9---|
 |-------7---5h7------8-8---|-------7---5h7------8-8---|
 |---0h7---x-------x------7-|---0h7---x-------x------7-|

Q. Q. H.
 
 |-------------------------|--------------------------|
 |-/12-----------\8--------|-/19----------------------|
 |-------------------------|--------------------------|
 |-------------------------|--------------------------|
 |-------------------------|--------------------------|
 |-------------------------|--------------------------|

|
| PM|
| S S S S S S S E S E S S S S S S E S S S S
 
 |-------------------------|--------------------------|
 |-------------------------|--------------------------|
 |-------------------------|--------------------------|
 |-------------------9-9---|--------------------------|
 |-------7---5h7-----8-8---|-------7---5h7-8\---------|
 |---0h7---x------x------7-|---0h7---x--------6-5-3h5-|

Q. Q. Q. Q.
 
 |--------------------------|--------------------------|
 |-/17-----------\12--------|-/15-

Important: The song above is NOT stored on the Chordie server. The original song is hosted at www.xguitar.com. Chordie works as a search engine and provides on-the-fly formatting. Chordie does not index songs against artists'/composers' will. To remove this song please click here.

Text color:
Chord color:
Chord grids: 
Font size:    
Page size: 

A5 Am Asus2 B Bb Bb5 Bm C C5 Csus2 D Dbm E E5 E5/F# E5/G Em/Bb Em/C Em/Db F G# G#5 Gm6
Rate #1 of 2 versions

Login - add to songbook

SHARE PAGE  




You need to log in to post comments