Guitar Tabs, Chords and Lyrics
Major upgrade!! After one year development the new version of Chordie is now online! Please give feedback.


To Rid the Disease  Opeth

As recorded by Opeth
From the 2003 Album DAMNATION
Words and Music by Mike Akerfeld
Arranged by Opeth
Gtr I (E A D G B E) - 'Peter clean'
Gtr II (E A D G B E) - 'Keyboard'
Gtr III (E A D G B E) - 'Mike solo'
Intro
Q=68
[Gm] [D5/G] [A/G] [C] 
[4/4] Gtr I
S S S S S S S S S S S S S S S S S S S S S S S S S S S S S S S S
 
 ||------6-----6-----5-----5-----5---|-----5-----5-----3-----3-----3---|
 ||o---3---3-----3-----3-----3-----3-|---2---2-----2-----2-----2-----2-|
 ||--0-------0-----0-----0-----0-----|-0-------0-----0-----0-----0-----|
 ||----------------------------------|---------------------------------|
 ||o---------------------------------|---------------------------------|
 ||----------------------------------|---------------------------------|

[Gm]S S S S S S S [D5/G]S S S S S S S S S [A/G]S S S S S S S [C]S S S S S S S S S 3x
 
 |-----6-----6-----5-----5-----5---|-----5-----5-----3-----3-----3----||
 |---3---3-----3-----3-----3-----3-|---2---2-----2-----2-----2-----2-o||
 |-0-------0-----0-----0-----0-----|-0-------0-----0-----0-----0------||
 |---------------------------------|----------------------------------||
 |---------------------------------|---------------------------------o||
 |---------------------------------|----------------------------------||

Verse 1
[Gm]S S S S S S S [D5/G]S S S S S S S S S [A/G]S S S S S S S S S S [C]S S S S S S 4x
 
 ||------6-----6-----5-----5-----5---|-----5-----5-----3-----3-----3-----||
 ||o---3---3-----3-----3-----3-----3-|---2---2-----2-----2-----2-----2--o||
 ||--0-------0-----0-----0-----0-----|-0-------0-----0-----0-----0-------||
 ||----------------------------------|-----------------------------------||
 ||o---------------------------------|----------------------------------o||
 ||----------------------------------|-----------------------------------||

Chorus 1
[Emadd11]S S S S S S S S [Em11/D]S S S S S S S S [A7/C#]S S S S S S S S [F#m7b9/C]S S S S S S S S 4x
 
 ||----------0---------------0-------|---------0---------------5---------||
 ||o-----8-----8-------7-------7-----|---8-------8-------5-------5---5--o||
 ||----0---0-----0-------0-------0---|-----0-------0-------0-------0-----||
 ||----------------7-------7-------7-|-------7-------7-------4-----------||
 ||o-----------------5---------------|-4---------------3----------------o||
 ||--0-------------------------------|-----------------------------------||

Verse 2
[Gm] S S S S S S S [D5/G] S S S S S S S S S
 
 ||---------6--------6--------5--------5--------5----|
 ||o-----3-----3--------3--------3--------3--------3-|
 ||---0-----------0--------0--------0--------0-------|
 ||--------------------------------------------------|
 ||o-------------------------------------------------|
 ||--------------------------------------------------|

|
| Gtr II
| S S S S S S S S S S S S S S S S
 
 ||--------18-------18-------17-------17-------17----|
 ||o----15----15-------15-------15-------15-------15-|
 ||--12----------12-------12-------12-------12-------|
 ||--------------------------------------------------|
 ||o-------------------------------------------------|
 ||--------------------------------------------------|

[A/G] S S S S S S S S S S [C] S S S S S S 8x
 
 |--------5--------5--------3--------3--------3------||
 |-----2-----2--------2--------2--------2--------2--o||
 |--0-----------0--------0--------0--------0---------||
 |---------------------------------------------------||
 |--------------------------------------------------o||
 |---------------------------------------------------||

|
| S S S S S S S S S S S S S S S S 8x
 
 |-------17-------17-------15-------15-------15------||
 |----14----14-------14-------14-------14-------14--o||
 |-12----------12-------12-------12-------12---------||
 |---------------------------------------------------||
 |--------------------------------------------------o||
 |---------------------------------------------------||

Chorus 2
1.,2.,3.,4.,5.,6.,7.
[Emadd11]S S S S S S S S [Em11/D]S S S S S S S S [A7/C#]S S S S S S S S [F#m7b9/C]S S S S S S S S 8x
 
 ||----------0---------------0-------|---------0---------------5---------||
 ||o-----8-----8-------7-------7-----|---8-------8-------5-------5---5--o||
 ||----0---0-----0-------0-------0---|-----0-------0-------0-------0-----||
 ||----------------7-------7-------7-|-------7-------7-------4-----------||
 ||o-----------------5---------------|-4---------------3----------------o||
 ||--0-------------------------------|-----------------------------------||

Guitar Solo
8.
[A7/C#]S S S S S [F#m7b9/C]S S S S S S S S S S S
 
 |-----------0---------------5-----------|
 |-----8-------8-------5-----------5---5-|
 |-------0-------0-------0-----------0---|
 |---------7-------7-------4-------------|
 |-4-----------------3-------------------|
 |---------------------------------------|

|
| Gtr III
| Q.. S S S S S T S. S S
 
 |---------------------------------------|
 |-----------------7h8---7h8-8s10----7-8-|
 |---------------------9-----------------|
 |---------------------------------------|
 |---------------------------------------|
 |---------------------------------------|

[Em]S S S S S S S S S S S S S S S S
 
 |----------------------------------------|
 |-----------0---------------0------------|
 |---------0---0-----------0-------0------|
 |-------2-------2-------2-----------2----|
 |-----2-----------2---2----------------2-|
 |-0-----------------0--------------------|

|
| Q.. S S S S S T S. S S
 
 |----------------------------------------|
 |-----------------7h8---7h8-8s10----8-10-|
 |-9-------------------9------------------|
 |----------------------------------------|
 |----------------------------------------|
 |----------------------------------------|

[G#m]S S S S S S S S S S S S S S S S
 
 |-------------------------------------------|
 |---------------4---------------4-----------|
 |--------4--------4-----------4---4---------|
 |------6------------6-------6--------6------|
 |----6----------------6---6-------------6---|
 |-4---------------------4-------------------|

|
| E. T. +X S S S S S S Q +S T T
 
 |-------------------------------------------|
 |-9-----------------------------------------|
 |--------8--(8)s6---6h8---------------------|
 |-----------------9-----6-8-9-------(9)-8h9-|
 |-------------------------------------------|
 |-------------------------------------------|

[G]S S S S S S S S S S S S S S S S
 
 |------------------------------------------|
 |--------------3-----------------2---------|
 |--------4-------4-------------4---4-------|
 |------5------------5--------4-------4-----|
 |----5----------------5----2-----------2---|
 |-3----------------------0-----------------|

|
| |-3-|
| E. T T T E S Q. S E
 
 |------------------------------------------|
 |------------------------------------------|
 |-7------6h7p6-----------------------------|
 |--------------9---------------------------|
 |------------------/9-7------------5p4-----|
 |------------------------------------------|

[BGus2/E]S S S S S S S S [F#+7/Bb]S S S S S S S S
 
 |---------0------------------------0-------|
 |-------3---3---------------3--------3-----|
 |-----4-------4-----------3------------3---|
 |---4-----------4-------4----------------4-|
 |-2---------------1------------------------|
 |------------------------------------------|

|
| |-3-|
| S S S S S S S S T T T S S T. +X S S S S
 
 |------------------------------------------|
 |-------2h3---2-5-3h5p3p2------------------|
 |-----------4-------------4----------------|
 |-----0---------------------4--(4)s2-0-----|
 |-0h2----------------------------------2-4-|
 |------------------------------------------|

[Em7/G] [F#add11] [E5/B] 
[6/4] S S S S S S S S S S S S S S S S H
 
 |------------0-----------------------------0-----|
 |--------3------3---------------0----------0-----|
 |------0----------0-----------3---3--------------|
 |----0--------------0-------4-------4------------|
 |-------------------------4------------4---------|
 |-3---------------------2------------------------|

|
| >
| E. T T E. T T E S Q +S +H
 
 |------------------------------------------------|
 |------------------------------------------------|
 |------------------------------------------------|
 |---------------------------7--------------------|
 |-5------4-5-7------5-7-9-----9-------(9)-(9)----|
 |------------------------------------------------|

Bridge
E=95
[Am/B] [Am] [Am/B] [Am] 
[4/4] Gtr II
 
 |-----3-----| |-----3-----| |-----3-----| |-----3-----|

S S S S S S S S S S S S S S S S S S S S S S S S
 
 ||-------8----8--------8----8--------8----8--------8----8---|
 ||o-----10---10-------10---10-------10---10-------10---10---|
 ||----9----9----9---9----9----9---9----9----9---9----9----9-|
 ||--9-------------7-------------9-------------7-------------|
 ||o---------------------------------------------------------|
 ||----------------------------------------------------------|

Q Q Q Q
|
[Gm/A] [Gm] [Gm/A] [Gm]  
 
 |----3----| |----3----| |----3----| |----3----|

S S S S S S S S S S S S S S S S S S S S S S S S
 
 |-----6---6-------6---6-------6---6-------6---6------||
 |-----8---8-------8---8-------8---8-------8---8-----o||
 |---7---7---7---7---7---7---7---7---7---7---7---7----||
 |-7-----------5-----------7-----------5--------------||
 |---------------------------------------------------o||
 |----------------------------------------------------||

Q Q Q Q
[Am/B] [Am] [Am/B] [Am]  
 
 |-----3-----| |-----3-----| |-----3-----| |-----3-----|

S S S S S S S S S S S S S S S S S S S S S S S S
 
 ||-------8----8--------8----8--------8----8--------8----8---|
 ||o-----10---10-------10---10-------10---10-------10---10---|
 ||----9----9----9---9----9----9---9----9----9---9----9----9-|
 ||--9-------------7-------------9-------------7-------------|
 ||o---------------------------------------------------------|
 ||----------------------------------------------------------|

Q Q Q Q
|
[Gm/A] [Gm] [Gm/A] [Gm]  
 
 |----3----| |----3----| |----3----| |----3----|

S S S S S S S S S S S S S S S S S S S S S S S S
 
 |-----6---6-------6---6-------6---6-------6---6----||
 |-----8---8-------8---8-------8---8-------8---8---o||
 |---7---7---7---7---7---7---7---7---7---7---7---7--||
 |-7-----------5-----------7-----------5------------||
 |-------------------------------------------------o||
 |--------------------------------------------------||

Q Q Q Q
[DmDsDm/FDsAsAs2]Gtr I[AmAsA5/BD5/BG5]
|3|
E E E E Q E E E E E E E E E E E 4x
 
 ||--1-0-------------|------------------||
 ||o-3-3-3-3-3-0-2-2-|-1-0-------------o||
 ||--2-2-2-2-2-2-2-2-|-2-2-2-2-2-2-0-0--||
 ||--0-0-3-3-2-2-2-2-|-2-2-2-2-0-0-0-0--||
 ||o---------0-0-0-0-|-0-0-2-2-1-1-----o||
 ||------------------|-------------3-3--||

Outro
[Am/B]Gtr II[Am] [Am/B] [Am]
<
 
 |-----3-----| |-----3-----| |-----3-----| |-----3-----|

S S S S S S S S S S S S S S S S S S S S S S S S
 
 |------8----8--------8----8--------8----8--------8----8---|
 |-----10---10-------10---10-------10---10-------10---10---|
 |---9----9----9---9----9----9---9----9----9---9----9----9-|
 |-9-------------7-------------9-------------7-------------|
 |---------------------------------------------------------|
 |---------------------------------------------------------|

Q Q Q Q
|
[Gm/A] [Gm] [Gm/A] [Gm]  
 
 |----3----| |----3----| |----3----| |----3----|

S S S S S S S S S S S S S S S S S S S S S S S S
 
 |-----6---6-------6---6-------6---6-------6---6----|
 |-----8---8-------8---8-------8---8-------8---8----|
 |---7---7---7---7---7---7---7---7---7---7---7---7--|
 |-7-----------5-----------7-----------5------------|
 |--------------------------------------------------|
 |--------------------------------------------------|

Q Q Q Q
[Am/B] [Am] [Am/B] [Am]  
 
 |-----3-----| |-----3-----| |-----3-----| |-----3-----|

S S S S S S S S S S S S S S S S S S S S S S S S
 
 ||-------8----8--------8----8--------8----8--------8----8---|
 ||o-----10---10-------10---10-------10---10-------10---10---|
 ||----9----9----9---9----9----9---9----9----9---9----9----9-|
 ||--9-------------7-------------9-------------7-------------|
 ||o---------------------------------------------------------|
 ||----------------------------------------------------------|

Q Q Q Q
|
[Gm/A] [Gm] [Gm/A] [Gm]  
 
 |----3----| |----3----| |----3----| |----3----|

S S S S S S S S S S S S S S S S S S S S S S S S 3x
 
 |-----6---6-------6---6-------6---6-------6---6----||
 |-----8---8-------8---8-------8---8-------8---8---o||
 |---7---7---7---7---7---7---7---7---7---7---7---7--||
 |-7-----------5-----------7-----------5------------||
 |-------------------------------------------------o||
 |--------------------------------------------------||

Q Q Q Q
[Am] >
W +W
 
 |--8--------|--(8)----*|
 |-10--------|-(10)----*|
 |-----------|---------*|
 |-----------|---------*|
 |--0--------|--(0)----*|
 |-----------|---------*|

Lyrics
 
 ------

There's nobody here, there's nobody near
I try not to care, dead eyes always stare
Let these matters be, don't trust what you see
Take hold of your time, step into the line
There's innocence torn from its maker
Stillborn the trust in you
This failure has made the creator
So would you tell him what to do (would you)
Leave your mark upon the head of someone
Who'll cry for his state, we know it's too late
I turn round to see what was meant to be
Faint movement release to rid the disease
There's innocence torn from its maker
Stillborn the trust in you
(I have lost the trust I had in you)
This failure has made the creator
So would you tell him what to do
(I have lost the trust I had in you)
Duration Legend
 
 ---------------
 W - whole; H - half; Q - quarter; E - 8th; S - 16th; T - 32nd; X - 64th; a - acciaccatura

+ - note tied to previous; . - note dotted; .. - note double dotted
Uncapitalized letters represent notes that are staccato (1/2 duration)
Irregular groupings are notated above the duration line
Duration letters will always appear directly above the note/fret number it represents the
duration for. Duration letters with no fret number below them represent rests. Multi-
bar rests are notated in the form Wxn, where n is the number of bars to rest for. Low
melody durations appear below the staff
Tablature Legend
 
 ----------------

h - hammer-on
p - pull-off
b - bend
pb - pre-bend
r - bend release (if no number after the r, then release immediately)
/\ - slide into or out of (from/to "nowhere")
s - legato slide
S - shift slide
<n> - natural harmonic
(n) - artificial harmonic
n(n) - tapped harmonic
~ - vibrato
tr - trill
T - tap
TP - trem. picking
PM - palm muting
\n/ - tremolo bar dip; n = amount to dip
\n - tremolo bar down
n/ - tremolo bar up
/n\ - tremolo bar inverted dip
= - hold bend; also acts as connecting device for hammers/pulls
<> - volume swell (louder/softer)
x - on rhythm slash represents muted slash
o - on rhythm slash represents single note slash
Misc Legend
 
 -----------

| - bar
|| - double bar
||o - repeat start
o|| - repeat end
*| - double bar (ending)
: - bar (freetime)
$ - Segno
& - Coda
Tempo markers - <E/E./Q/Q./H/H.> = BPM(8/16=s8/s16), where s8 = swing 8ths, s16 = swing 16ths

Important: The song above is NOT stored on the Chordie server. The original song is hosted at www.xguitar.com. Chordie works as a search engine and provides on-the-fly formatting. Chordie does not index songs against artists'/composers' will. To remove this song please click here.

Text color:
Chord color:
Chord grids: 
Font size:    
Page size: 

A/G A7/C# Am Am/B C D5/G E5/B Em Em7/G Emadd11 F#add11 G G#m Gm Gm/A
Rate #3 of 4 versions

Login - add to songbook

SHARE PAGE  




You need to log in to post comments