Guitar Tabs, Chords and Lyrics
Major upgrade!! After one year development the new version of Chordie is now online! Please give feedback.


Windowpane  Opeth

The Version Of This I Submitted Before Was Wrong, Sorry.
I Found a Correct one After seeing he played it different in the video
WINDOWPANE
As recorded by Opeth
From the 2003 Album DAMNATION
Words by Mikael Åkerfeldt
Music by Opeth
Transcribed By Zac Meadows
Gtr I (E A D G B E) - 'Clean'
Gtr II (E A D G B E) - 'Acoustic'
Gtr III (E A D G B E) - 'Distorted Lead'
Gtr IV (E A D G B E) - 'Clean Lead 1 (Left Channel)'
Gtr V (E A D G B E) - 'Clean Lead 2 (Right Channel)'
Gtr VI (E A D G B E) - 'Synth'
Intro
Q=162
6[Emadd2]/8[Em7]
Gtr I
Q E E +E E Q Q Q Q E E +E E E E E E E E
 
 ||---------------|----------|--------------|---------------||
 ||o--------------|----------|--------------|--------------o||
 ||-------0-(0)---|-------0--|------0-(0)---|---------------||
 ||-------4-(4)---|-------4--|------4-(4)---|--------5------||
 ||o----2-------2-|----2-----|----2-------2-|------5---5h7-o||
 ||--0------------|-0--------|-0------------|-0-/7----------||

[Emadd2]Q E E +E E Q Q Q Q E E +E E E [Em7] E E E E E 6x
 
 ||---------------|----------|--------------|----------------||
 ||o--------------|----------|--------------|---------------o||
 ||-------0-(0)---|-------0--|------0-(0)---|----------------||
 ||-------4-(4)---|-------4--|------4-(4)---|--------5-------||
 ||o----2-------2-|----2-----|----2-------2-|------5---5h7--o||
 ||--0------------|-0--------|-0------------|-0-/7-----------||

Verse 1 & 2
$
[E6sus2/B] [A6] [E6sus2/B] [A6] 
[4/4] E E E E E E E E E E E E E E E E E E E E E E E E E E E E E E E E 4x
 
 ||----------------0-|-----------------|---------------0-|-------------------||
 ||o---------0-------|-0---------------|---------0-------|-0----------------o||
 ||------6-----6-----|---6---6-----6---|-----6-----6-----|---6---6-----6-----||
 ||----4---4-----4---|-----4-----4---4-|---4---4-----4---|-----4-----4---4---||
 ||o-2---------------|---------0-------|-2---------------|---------0--------o||
 ||------------------|-----------------|-----------------|-------------------||

[E6sus2/B] [A6]  
[E] [E] [E] [E] [E] [E] [E] [E] [E] [E] [E] [E] [E] [E] [E] [E]  
 
 |----------------0-|--------------------|
 |----------0-------|---0----------------|
 |------6-----6-----|------6---6-----6---|
 |----4---4-----4---|--------4-----4---4-|
 |--2---------------|------------0-------|
 |------------------|--------------------|

|
| Gtr VI
| W +W
 
 |-14---------------|-(14)---------------|
 |--7---------------|--(7)---------------|
 |--7---------------|--(7)---------------|
 |------------------|--------------------|
 |--9---------------|--(9)---------------|
 |------------------|--------------------|

[E6sus2/B] [A6]  
[E] [E] [E] [E] [E] [E] [E] [E] [E] [E] [E] [E] [E] [E] [E] [E]  
 
 |-----------------0-|--------------------|
 |-----------0-------|---0----------------|
 |-------6-----6-----|------6---6-----6---|
 |-----4---4-----4---|--------4-----4---4-|
 |--2----------------|------------0-------|
 |-------------------|--------------------|

|
| W +W
 
 |-12----------------|-(12)---------------|
 |--5----------------|--(5)---------------|
 |--6----------------|--(6)---------------|
 |-------------------|--------------------|
 |-(9)---------------|--(9)---------------|
 |-------------------|--------------------|

[E6sus2/B] [A6] 
[E] [E] [E] [E] [E] [E] [E] [E] [E] [E] [E] [E] [E] [E] [E] [E]  
 
 |--------------------------0--|--------------------|
 |----------------0------------|---0----------------|
 |--------6----------6---------|------6---6-----6---|
 |-----4------4---------4------|--------4-----4---4-|
 |--2--------------------------|------------0-------|
 |-----------------------------|--------------------|

|
| Q E E +Q E E +W
 
 |-10-----9---7--(7)----9--10--|-(10)---------------|
 |--7-----5---5--(5)----5---7--|--(7)---------------|
 |--7-----6---4--(4)----6---7--|--(7)---------------|
 |-----------------------------|--------------------|
 |-(9)---(9)-(9)-(9)---(9)-(9)-|--(9)---------------|
 |-----------------------------|--------------------|

To Coda
[E6sus2/B] [A6]  
[E] [E] [E] [E] [E] [E] [E] [E] [E] [E] [E] [E] [E] [E] [E] [E]  
 
 |-----------------0-|-------------------|
 |-----------0-------|--0----------------|
 |-------6-----6-----|-----6---6-----6---|
 |-----4---4-----4---|-------4-----4---4-|
 |--2----------------|-----------0-------|
 |-------------------|-------------------|

|
| W +W
 
 |--9----------------|-(9)---------------|
 |--5----------------|-(5)---------------|
 |--6----------------|-(6)---------------|
 |-------------------|-------------------|
 |-(9)---------------|-(9)---------------|
 |-------------------|-------------------|

Guitar Solo 1
Q=161
6[Emadd2]/8[Em7]
Gtr III
~~~
H. +H Q Q E E E E E E q E E
 
 |-/7-------------|-(7)--------|----/7-7--8--7-|-5--7-5b7---5---|
 |----------------|------------|---------------|--------------8-|
 |----------------|------------|---------------|----------------|
 |----------------|------------|---------------|----------------|
 |----------------|------------|---------------|----------------|
 |----------------|------------|---------------|----------------|

|
| Gtr I
| Q E E +E E Q Q Q Q E E +E E E E E E E E
 
 |----------------|------------|---------------|----------------|
 |----------------|------------|---------------|----------------|
 |--------0-(0)---|---------0--|-------0-(0)---|----------------|
 |--------4-(4)---|---------4--|-------4-(4)---|----------5-----|
 |------2-------2-|------2-----|-----2-------2-|------5-----5h7-|
 |--0-------------|--0---------|-0-------------|-0-/7-----------|

[Emadd2]~~~~~~~~~~~~~~~~~~~~[Em7]
H. +H. E S E S Q S S E E E E E S S
 
 |---------------|------------|---------------------|-------------------|
 |-7-------------|-(7)--------|-7---8-----7h====8p7-|-------------------|
 |---------------|------------|---------------------|-9--7--------------|
 |---------------|------------|---------------------|------/7----7------|
 |---------------|------------|---------------------|---------10---10p9-|
 |---------------|------------|---------------------|-------------------|

|
| Q E E +E E Q Q Q Q E E +E E E E E E E E
 
 |---------------|------------|---------------------|-------------------|
 |---------------|------------|---------------------|-------------------|
 |-------0-(0)---|---------0--|-----------0-(0)-----|-------------------|
 |-------4-(4)---|---------4--|-----------4-(4)-----|----------5--------|
 |-----2-------2-|------2-----|-------2---------2---|-------5----5h=7---|
 |-0-------------|--0---------|-0-------------------|-0-/7--------------|

[Emadd2] ~~~ ~~~[Em7]~~~~~~~~~~~
H. S E. +H Q H +H +E E
 
 |---------------|--------------|---------------|-----------------|
 |---------------|--------------|---------------|-----------------|
 |---------------|--------------|----/6---------|-(6)--------(6)5-|
 |---------------|--------------|---------------|-----------------|
 |-7-------------|-5h7--(7)-----|---------------|-----------------|
 |---------------|--------------|---------------|-----------------|

|
| Q E E +E E Q Q Q Q E E +E E E E E E E E
 
 |---------------|--------------|---------------|-----------------|
 |---------------|--------------|---------------|-----------------|
 |-------0-(0)---|-----------0--|-------0-(0)---|-----------------|
 |-------4-(4)---|-----------4--|-------4-(4)---|----------5------|
 |-----2-------2-|-------2------|-----2-------2-|--------5----5h7-|
 |-0-------------|-0------------|-0-------------|--0--/7----------|

[Emadd2] ~~~~~~~~~~~~~~~~~[Em7]
H. Q Q Q E +E +H +H +Q
 
 |---------------|----------|----------------------|------------------|
 |---------------|-5-----7--|-7b8==(7)-(7)---------|-(7)--------(7)r==|
 |-4-------------|----4-----|----------------------|------------------|
 |---------------|----------|----------------------|------------------|
 |---------------|----------|----------------------|------------------|
 |---------------|----------|----------------------|------------------|

|
| Q E E +E E Q Q Q Q E E +E E E E E E E E
 
 |---------------|----------|----------------------|------------------|
 |---------------|----------|----------------------|------------------|
 |-------0-(0)---|-------0--|--------------0-(0)---|------------------|
 |-------4-(4)---|-------4--|--------------4-(4)---|----------5-------|
 |-----2-------2-|----2-----|-----------2--------2-|--------5----5h=7-|
 |-0-------------|-0--------|-0--------------------|--0--/7-----------|

[Emadd2]  
[E] [+E] [+E] [+E] [+E] [+E] [+E] [+E] [+E] [+E] [+E] [+E]  
 
 |-----------------------------|-------------------------------|
 |-7b8r(7)-(7)b8r(7)-(7)b8r(7)-|-(7)b8r(7)-(7)b8r(7)-(7)b8r(7)-|
 |-----------------------------|-------------------------------|
 |-----------------------------|-------------------------------|
 |-----------------------------|-------------------------------|
 |-----------------------------|-------------------------------|

|
| Q E E +E E Q Q Q
 
 |-----------------------------|-------------------------------|
 |-----------------------------|-------------------------------|
 |----------------0--(0)-------|----------------------0--------|
 |----------------4--(4)-------|----------------------4--------|
 |----------2---------------2--|------------2------------------|
 |-0---------------------------|--0----------------------------|

+E +E E E E S +S E [Em7] E S +S E E E
 
 |-------------------------|------------------|
 |-(7)b8r(7)-5h7p=5--------|----5-------------|
 |-------------------5-(5)s|=4----4-(4)s2-4h5-|
 |-------------------------|------------------|
 |-------------------------|------------------|
 |-------------------------|------------------|

|
| Q E E +E E E E E E E E
 
 |-------------------------|------------------|
 |-------------------------|------------------|
 |-------------0-(0)-------|------------------|
 |-------------4-(4)-------|------------5-----|
 |-----------2-------2-----|------5-------5h7-|
 |--0----------------------|-0-/7-------------|

[Emadd2] ~~~ ~~~~~~~~~~~~~~~~~[Em7]~~~~~~~
H. +H E E S E. +H +Q +E E E E
 
 |---------------|-------------|------------------|-------------------|
 |---------------|-------------|------------------|---------------3-5-|
 |-4-------------|-(4)-----2p0-|-2s4--(4)---------|-(4)----(4)-/4-----|
 |---------------|-------------|------------------|-------------------|
 |---------------|-------------|------------------|-------------------|
 |---------------|-------------|------------------|-------------------|

|
| Q E E +E E Q Q Q Q E E +E E E E E E E E
 
 |---------------|-------------|------------------|-------------------|
 |---------------|-------------|------------------|-------------------|
 |-------0-(0)---|---------0---|----------0-(0)---|-------------------|
 |-------4-(4)---|---------4---|----------4-(4)---|-------------5-----|
 |-----2-------2-|------2------|-------2--------2-|---------5-----5h7-|
 |-0-------------|--0----------|-0----------------|--0--/7------------|

[Emadd2] ~~~~~~~~~~~~~~~~~~~~ ~~~~~~~~~~~~~~~~~~~~[Em7]
E E +H +Q Q E E H. +H.
 
 |-----------------|-------------|---------------|----------------|
 |-----------------|-------------|---------------|----------------|
 |-4s2-(2)---------|-(2)-----0h2-|---------------|----------------|
 |-----------------|-------------|-4-------------|-(4)------------|
 |-----------------|-------------|---------------|----------------|
 |-----------------|-------------|---------------|----------------|

|
| Q E E +E E Q Q Q Q E E +E E E E E E E E
 
 |-----------------|-------------|---------------|----------------|
 |-----------------|-------------|---------------|----------------|
 |---------0-(0)---|---------0---|-------0-(0)---|----------------|
 |---------4-(4)---|---------4---|-------4-(4)---|----------5-----|
 |------2--------2-|------2------|-----2-------2-|--------5---5h7-|
 |-0---------------|--0----------|-0-------------|--0--/7---------|

D.S. al Coda
[Emadd2] ~~~~~~~~~~~~~~~~~~~~[Em7]
E S S E E E E Q Q +E E H. +H.
 
 |-----------------|--------------|---------------|-----------------|
 |-----------------|--------------|---------------|-----------------|
 |-----------------|--------------|---------------|-----------------|
 |-4h5-4---4-------|--------------|---------------|-----------------|
 |-------7----5h=7-|-7------------|---------------|-----------------|
 |-----------------|----/5--(5)-6-|-7-------------|-(7)-------------|

|
| Q E E +E E Q Q Q Q E E +E E E E E E E E
 
 |-----------------|--------------|---------------|-----------------|
 |-----------------|--------------|---------------|-----------------|
 |---------0-(0)---|---------0----|-------0-(0)---|-----------------|
 |---------4-(4)---|---------4----|-------4-(4)---|----------5------|
 |-------2-------2-|-----2--------|-----2-------2-|--------5---5h7--|
 |-0---------------|-0------------|-0-------------|--0--/7----------|

Bridge 1
&
[Gm] [Gm/A]  
[4/4] Gtr IV
Q. Q. Q +W
 
 ||--5----3---------|--------------------|
 ||o-------------3--|-(3)----------------|
 ||-----------------|--------------------|
 ||-----------------|--------------------|
 ||o----------------|--------------------|
 ||-----------------|--------------------|

|
| Gtr V
| H. Q +E E +Q H
 
 ||--------------5--|-(5)-3-(3)----------|
 ||o----------------|-------------3------|
 ||-----------------|--------------------|
 ||-----------------|--------------------|
 ||o----------------|--------------------|
 ||-----------------|--------------------|

|
| Gtr II
| Q. E E E Q +E Q E Q E E
 
 ||----------3------|-----3-------3------|
 ||o---------3------|-----3-------3--3---|
 ||-------3----3----|-----------3------3-|
 ||-----------------|--------------------|
 ||o----------------|--------------------|
 ||--3-----------5--|-(5)----------------|

[Gm] Q. Q. Q [Gm/Bb] +W
 
 |--5----3----------|----------------------||
 |--------------3---|-(3)-----------------o||
 |------------------|----------------------||
 |------------------|----------------------||
 |------------------|---------------------o||
 |------------------|----------------------||

|
| +H. Q +E E +Q H
 
 |--------------5---|-(5)-3-(3)------------||
 |-(3)--------------|-------------3-------o||
 |------------------|----------------------||
 |------------------|----------------------||
 |------------------|---------------------o||
 |------------------|----------------------||

|
| Q. E E E E E +E Q E Q E E
 
 |----------3-------|-----3-------3--------||
 |----------3-------|-----3-------3--3----o||
 |-------3----3-----|-----------3------3---||
 |------------------|----------------------||
 |------------------|---------------------o||
 |--3-----------5h6-|-(6)------------------||

[G#m] Q. Q. Q [G#m/E]+W [G#m] Q. Q. [G#m/E]Q +W
 
 |--6----4---------|-------------------|--6----4---------|-------------------|
 |--------------4--|-(4)---------------|--------------4--|-(4)---------------|
 |-----------------|-------------------|-----------------|-------------------|
 |-----------------|-------------------|-----------------|-------------------|
 |-----------------|-------------------|-----------------|-------------------|
 |-----------------|-------------------|-----------------|-------------------|

|
| +H. Q +E E +Q H +H. Q +E E +Q H
 
 |--------------6--|-(6)-4-(4)---------|--------------6--|-(6)-4-(4)---------|
 |-(3)-------------|-------------4-----|-(4)-------------|-------------4-----|
 |-----------------|-------------------|-----------------|-------------------|
 |-----------------|-------------------|-----------------|-------------------|
 |-----------------|-------------------|-----------------|-------------------|
 |-----------------|-------------------|-----------------|-------------------|

|
| Q. E E E Q +E Q E Q Q Q. E E E Q +E Q E Q Q
 
 |----------4------|-----4-------4-----|----------4------|-----4-------4-----|
 |----------4------|-----4-------4-----|----------4------|-----4-------4-----|
 |-------4----4----|-----------4----4--|-------4----4----|-----------4----4--|
 |-----------------|-------------------|-----------------|-------------------|
 |-----------------|-------------------|-----------------|-------------------|
 |--4-----------0--|-(0)---------------|--4-----------0--|-(0)---------------|

[Gm] Q. Q. [Gm/A]Q +H E S S E E
 
 |--5----3---------|-----------------------|
 |--------------3--|-(3)---------3h4p3---3-|
 |-----------------|-------------------5---|
 |-----------------|-----------------------|
 |-----------------|-----------------------|
 |-----------------|-----------------------|

|
| +H. Q +E E +Q E S S E E
 
 |--------------5--|-(5)-3-(3)-------------|
 |-(4)-------------|-------------3h4p3---3-|
 |-----------------|-------------------5---|
 |-----------------|-----------------------|
 |-----------------|-----------------------|
 |-----------------|-----------------------|

|
| Q. E E E Q +E Q E Q E E
 
 |----------3------|-----3-------3---------|
 |----------3------|-----3-------3-----3---|
 |-------3----3----|-----------3---------3-|
 |-----------------|-----------------------|
 |-----------------|-----------------------|
 |--3-----------5--|-(5)-------------------|

[Gm]E E S +S E +E E E [Gm/Bb]E E E E E Q E E
 
 |-------------------------|------------------------|
 |-------------------------|--8----7-8-/10--11-13---|
 |-3h5-------------------7-|-----7------------------|
 |-----7-(7)s5-(5)-5-/10---|------------------------|
 |-------------------------|------------------------|
 |-------------------------|------------------------|

|
| E E S +S E +E E E E E E E E Q E E
 
 |-------------------------|------------------------|
 |-------------------------|--8----7-8-/10---8-10---|
 |-3h5-------------------7-|-----7------------------|
 |-----7-(7)s5-(5)-5-/10---|------------------------|
 |-------------------------|------------------------|
 |-------------------------|------------------------|

|
| Q. E E E E E +E Q E Q E E
 
 |--------------3----------|-----3-------3----------|
 |--------------3----------|-----3-------3---3------|
 |-----------3-----3-------|---------3----------3---|
 |-------------------------|------------------------|
 |-------------------------|------------------------|
 |-3-------------------5h6-|-(6)--------------------|

Verse 3
[Gm] [Gm/A] >
~~~~~~~~~~~~~~~~~~~
S +S E +H. +H H
 
 |---------------------------|------------------|
 |-13--(13)s15-(15)----------|-(15)-------------|
 |---------------------------|------------------|
 |---------------------------|------------------|
 |---------------------------|------------------|
 |---------------------------|------------------|

|
| >
| ~~~~~~~~~~~~~~~~~~~
| S +S E +H. +H H
 
 |---------------------------|------------------|
 |-10--(10)s11-(11)----------|-(11)-------------|
 |---------------------------|------------------|
 |---------------------------|------------------|
 |---------------------------|------------------|
 |---------------------------|------------------|

|
| Gtr II
| Q. E E E Q +E Q E Q E E
 
 |--------------------3------|------3----3------|
 |--------------------3------|------3----3--3---|
 |------------------3---3----|---------3------3-|
 |---------------------------|------------------|
 |---------------------------|------------------|
 |--3---------------------5--|--(5)-------------|

[Gm]W [Gm/Bb] W
 
 |----------------|-----------------|
 |----------------|-----------------|
 |----------------|-----------------|
 |----------------|-----------------|
 |----------------|-----------------|
 |----------------|-----------------|

|
| W W
 
 |----------------|-----------------|
 |----------------|-----------------|
 |----------------|-----------------|
 |----------------|-----------------|
 |----------------|-----------------|
 |----------------|-----------------|

|
| Q. E E E E E +E Q E Q E E
 
 |--------3-------|-----3----3------|
 |--------3-------|-----3----3--3---|
 |------3---3-----|--------3------3-|
 |----------------|-----------------|
 |----------------|-----------------|
 |-3----------5h6-|-(6)-------------|

[Gm]Gtr II[Gm/A] [Gm] [Gm/Bb]
Q. E E E Q +E Q E Q E E Q. E E E E E +E Q E Q E E
 
 |--------3------|-----3----3------|--------3-------|-----3----3------|
 |--------3------|-----3----3--3---|--------3-------|-----3----3--3---|
 |------3---3----|--------3------3-|------3---3-----|--------3------3-|
 |---------------|-----------------|----------------|-----------------|
 |---------------|-----------------|----------------|-----------------|
 |-3----------5--|-(5)-------------|-3----------5h6-|-(6)-------------|

[G#m]Q. E E E [G#m/E]Q +E Q E Q Q [G#m]Q. E E E [G#m/E]Q +E Q E Q Q
 
 |--------4------|-----4----4-----|--------4------|-----4----4-----|
 |--------4------|-----4----4-----|--------4------|-----4----4-----|
 |------4---4----|--------4----4--|------4---4----|--------4----4--|
 |---------------|----------------|---------------|----------------|
 |---------------|----------------|---------------|----------------|
 |-4----------0--|-(0)------------|-4----------0--|-(0)------------|

[Gm]Q. E E E [Gm/A]Q +E Q E Q E E [Gm]Q. E E E E [Gm/Bb]E +E Q E Q E E
 
 |--------3------|-----3----3------|--------3-------|-----3----3------|
 |--------3------|-----3----3--3---|--------3-------|-----3----3--3---|
 |------3---3----|--------3------3-|------3---3-----|--------3------3-|
 |---------------|-----------------|----------------|-----------------|
 |---------------|-----------------|----------------|-----------------|
 |-3----------5--|-(5)-------------|-3----------5h6-|-(6)-------------|

Bridge 2
[Gm]Gtr IV[Gm/A]
Q. Q. Q +W
 
 ||--5----3---------|--------------------|
 ||o-------------3--|-(3)----------------|
 ||-----------------|--------------------|
 ||-----------------|--------------------|
 ||o----------------|--------------------|
 ||-----------------|--------------------|

|
| Gtr V
| H. Q +E E +Q H
 
 ||--------------5--|-(5)-3-(3)----------|
 ||o----------------|-------------3------|
 ||-----------------|--------------------|
 ||-----------------|--------------------|
 ||o----------------|--------------------|
 ||-----------------|--------------------|

|
| Gtr II
| Q. E E E Q +E Q E Q E E
 
 ||----------3------|-----3-------3------|
 ||o---------3------|-----3-------3--3---|
 ||-------3----3----|-----------3------3-|
 ||-----------------|--------------------|
 ||o----------------|--------------------|
 ||--3-----------5--|-(5)----------------|

[Gm] Q. Q. Q [Gm/Bb] +W
 
 |--5----3----------|----------------------||
 |--------------3---|-(3)-----------------o||
 |------------------|----------------------||
 |------------------|----------------------||
 |------------------|---------------------o||
 |------------------|----------------------||

|
| +H. Q +E E +Q H
 
 |--------------5---|-(5)-3-(3)------------||
 |-(3)--------------|-------------3-------o||
 |------------------|----------------------||
 |------------------|----------------------||
 |------------------|---------------------o||
 |------------------|----------------------||

|
| Q. E E E E E +E Q E Q E E
 
 |----------3-------|-----3-------3--------||
 |----------3-------|-----3-------3--3----o||
 |-------3----3-----|-----------3------3---||
 |------------------|----------------------||
 |------------------|---------------------o||
 |--3-----------5h6-|-(6)------------------||

[G#m] Q. Q. [G#m/E]Q +W [G#m] Q. Q. [G#m/E]Q +W
 
 |--6----4---------|-------------------|--6----4---------|-------------------|
 |--------------4--|-(4)---------------|--------------4--|-(4)---------------|
 |-----------------|-------------------|-----------------|-------------------|
 |-----------------|-------------------|-----------------|-------------------|
 |-----------------|-------------------|-----------------|-------------------|
 |-----------------|-------------------|-----------------|-------------------|

|
| +H. Q +E E +Q H +H. Q +E E +Q H
 
 |--------------6--|-(6)-4-(4)---------|--------------6--|-(6)-4-(4)---------|
 |-(3)-------------|-------------4-----|-(4)-------------|-------------4-----|
 |-----------------|-------------------|-----------------|-------------------|
 |-----------------|-------------------|-----------------|-------------------|
 |-----------------|-------------------|-----------------|-------------------|
 |-----------------|-------------------|-----------------|-------------------|

|
| Q. E E E Q +E Q E Q Q Q. E E E Q +E Q E Q Q
 
 |----------4------|-----4-------4-----|----------4------|-----4-------4-----|
 |----------4------|-----4-------4-----|----------4------|-----4-------4-----|
 |-------4----4----|-----------4----4--|-------4----4----|-----------4----4--|
 |-----------------|-------------------|-----------------|-------------------|
 |-----------------|-------------------|-----------------|-------------------|
 |--4-----------0--|-(0)---------------|--4-----------0--|-(0)---------------|

[Gm] Q. Q. [Gm/A]Q +H E S S E E
 
 |--5----3---------|-----------------------|
 |--------------3--|-(3)---------3h4p3---3-|
 |-----------------|-------------------5---|
 |-----------------|-----------------------|
 |-----------------|-----------------------|
 |-----------------|-----------------------|

|
| +H. Q +E E +Q E S S E E
 
 |--------------5--|-(5)-3-(3)-------------|
 |-(4)-------------|-------------3h4p3---3-|
 |-----------------|-------------------5---|
 |-----------------|-----------------------|
 |-----------------|-----------------------|
 |-----------------|-----------------------|

|
| Q. E E E Q +E Q E Q E E
 
 |----------3------|-----3-------3---------|
 |----------3------|-----3-------3-----3---|
 |-------3----3----|-----------3---------3-|
 |-----------------|-----------------------|
 |-----------------|-----------------------|
 |--3-----------5--|-(5)-------------------|

[Gm]E E S +S E +E E E [Gm/Bb]E E E E E Q E E
 
 |-------------------------|------------------------|
 |-------------------------|--8----7-8-/10--11-13---|
 |-3h5-------------------7-|-----7------------------|
 |-----7-(7)s5-(5)-5-/10---|------------------------|
 |-------------------------|------------------------|
 |-------------------------|------------------------|

|
| E E S +S E +E E E E E E E E Q E E
 
 |-------------------------|------------------------|
 |-------------------------|--8----7-8-/10---8-10---|
 |-3h5-------------------7-|-----7------------------|
 |-----7-(7)s5-(5)-5-/10---|------------------------|
 |-------------------------|------------------------|
 |-------------------------|------------------------|

|
| Q. E E E E E +E Q E Q E E
 
 |--------------3----------|-----3-------3----------|
 |--------------3----------|-----3-------3---3------|
 |-----------3-----3-------|---------3----------3---|
 |-------------------------|------------------------|
 |-------------------------|------------------------|
 |-3-------------------5h6-|-(6)--------------------|

Drum Break
N.C.
>
~~~~~~~~~~~~~~~
S +S E +H. +H H W W
 
 |----------------------|--------------|----------|------|
 |-13-(13)s15-(15)------|-(15)---------|----------|------|
 |----------------------|--------------|----------|------|
 |----------------------|--------------|----------|------|
 |----------------------|--------------|----------|------|
 |----------------------|--------------|----------|------|

|
| >
| ~~~~~~~~~~~~~~~
| S +S E +H. +H H W W
 
 |----------------------|--------------|----------|------|
 |-10-(10)s11-(11)------|-(11)---------|----------|------|
 |----------------------|--------------|----------|------|
 |----------------------|--------------|----------|------|
 |----------------------|--------------|----------|------|
 |----------------------|--------------|----------|------|

W W W W
 
 |----------|----------|----------|------|
 |----------|----------|----------|------|
 |----------|----------|----------|------|
 |----------|----------|----------|------|
 |----------|----------|----------|------|
 |----------|----------|----------|------|

|
| W W W W
 
 |----------|----------|----------|------|
 |----------|----------|----------|------|
 |----------|----------|----------|------|
 |----------|----------|----------|------|
 |----------|----------|----------|------|
 |----------|----------|----------|------|

Bridge 3
[(E)]Gtr I[Gm/Bb] [G/B] [G5/D] [Gm/Bb]
Q. E E E E E E E E E E E E E
 
 ||---------------------|-----------------------------|
 ||o--------------------|-----------------------------|
 ||--------------0------|---0----------0------------0-|
 ||------------5------5-|-----------5------------5----|
 ||o--------------------|-------5---------4-----------|
 ||---0----/6-------7---|--------------------6--------|

|
| Gtr VI
| Q. Q. Q +E E +Q E E +Q
 
 ||--12-----------------|------10-(10)----------------|
 ||o-------11------12---|-(12)-----------14-11-(11)---|
 ||---9-----------------|-------7--(7)----------------|
 ||---------8-------9---|--(9)-----------11--8--(8)---|
 ||o--7-----------------|-------5--(5)----------------|
 ||---0-----6-------7---|--(7)------------9--6--(6)---|

[Gsus2/A] E E E E E E [Gm/Bb] E E E [C5] E E E [D] E. +S [F] Q 8x
 
 |--------------------|------------------------------||
 |--------------------|-----------------------------o||
 |-------0-----0------|---0----------0--7--(7)s10----||
 |-----5-----5------5-|-----------5------------------||
 |--------------------|-----------------5--(5)s=8---o||
 |--5------5------6---|-------8----------------------||

|
| H. Q +E E +Q Q Q 8x
 
 |--------------------|----------------10------13----||
 |-10------------11---|-(11)-13-(13)----------------o||
 |--------------------|-----------------7------10----||
 |--7-------------8---|--(8)-10-(10)-----------------||
 |--------------------|-----------------5-------8---o||
 |--5-------------6---|--(6)--8--(8)-----------------||

Verse 4
6[Esus2]/8[Cmaj7]
Gtr I
Q. Q. Q +E E +Q H. +H.
 
 ||-----------------|----------------|-----------|-----------|
 ||o----------------|----------------|-----------|-----------|
 ||-----------------|----------------|-----------|-----------|
 ||--/7----5--------|-4--(4)-5-(5)---|-2---------|-(2)-------|
 ||o----------------|----------------|-----------|-----------|
 ||-----------------|----------------|-----------|-----------|

|
| Gtr II
| Q. E +E E Q E Q E Q. Q E H Q
 
 ||-----------------|----------------|------0----|--0--------|
 ||o-------7--(7)---|-7------7-------|------0----|--0--------|
 ||--------9--(9)---|-9------9-------|-----------|-----------|
 ||--------9--(9)---|-9------9-------|-----------|-----------|
 ||o----------------|----------------|-----------|-----------|
 ||---0-----------0-|-----0--------0-|-8-------8-|--------8--|

[Esus2] Q. Q. Q +E E +Q [Cmaj7]H. +H.
 
 |----------------|-----------------|-----------|-----------|
 |----------------|-----------------|-----------|-----------|
 |----------------|-----------------|-----------|-----------|
 |-/7----5--------|-/9--(9)-7-(7)---|-5---------|-(5)-------|
 |----------------|-----------------|-----------|-----------|
 |----------------|-----------------|-----------|-----------|

|
| Q. E +E E Q E Q E Q. Q E H Q
 
 |----------------|-----------------|------0----|--0--------|
 |-------7--(7)---|--7------7-------|------0----|--0--------|
 |-------9--(9)---|--9------9-------|-----------|-----------|
 |-------9--(9)---|--9------9-------|-----------|-----------|
 |----------------|-----------------|-----------|-----------|
 |--0-----------0-|------0--------0-|-8-------8-|--------8--|

[D#m/A]H. [Em/B]H. [Em/F#]H. +H.
 
 |---------|---------|-----------|--------|
 |---------|---------|-----------|--------|
 |---------|---------|-----------|--------|
 |-7-------|-9-------|-5---------|-(5)----|
 |---------|---------|-----------|--------|
 |---------|---------|-----------|--------|

|
| H. H. Q. Q. H.
 
 |---------|---------|-0---------|--------|
 |-7-------|-8-------|-0---------|--------|
 |-8-------|-9-------|-0----0----|--------|
 |-7-------|-9-------|-----------|--4-----|
 |---------|---------|-----------|--------|
 |---------|---------|-----------|--------|

1. 2.
[D#m/A]H. [Em/B]H. [Em/F#]E E H +H. +H Q
 
 |---------|---------|------------|-----------||-------------|
 |---------|---------|------------|----------o||-------------|
 |---------|---------|------------|-----------||-------------|
 |-7-------|-5-------|-5p4p2------|-(2)-------||-(2)----/9---|
 |---------|---------|------------|----------o||-------------|
 |---------|---------|------------|-----------||-------------|

|
| H. H. Q. Q. H. H.
 
 |---------|---------|-0----------|-----------||-------------|
 |-7-------|-8-------|-0----------|----------o||-------------|
 |-8-------|-9-------|-0-----0----|-----------||-------------|
 |-7-------|-9-------|------------|--4--------||--4----------|
 |---------|---------|------------|----------o||-------------|
 |---------|---------|------------|-----------||-------------|

Guitar Solo 2
[Esus2]Q. Q. Q. Q. [Cmaj7]H +Q H E E
 
 |---------------|--------------|---------------|----------|
 |---------------|-/8-----7-----|-7------(7)\---|------7-5-|
 |-7----9--------|--------------|---------------|----------|
 |---------------|--------------|---------------|----------|
 |---------------|--------------|---------------|----------|
 |---------------|--------------|---------------|----------|

|
| Q. E +E E Q E Q E Q. Q E H Q
 
 |---------------|--------------|------0--------|-0--------|
 |------7--(7)---|--7-----7-----|------0--------|-0--------|
 |------9--(9)---|--9-----9-----|---------------|----------|
 |------9--(9)---|--9-----9-----|---------------|----------|
 |---------------|--------------|---------------|----------|
 |-0-----------0-|------0-----0-|-8-----------8-|------8---|

[Esus2]E +E +E E Q H E E [Cmaj7]E E H +H E S S
 
 |-----------------7----|-5----------|------------|---------------|
 |-7--(7)b8-(7)p5-------|--------7h8-|-7h8p7------|-(7)----7h8p7--|
 |----------------------|------------|------------|---------------|
 |----------------------|------------|------------|---------------|
 |----------------------|------------|------------|---------------|
 |----------------------|------------|------------|---------------|

|
| Q. E +E E Q E Q E Q. Q E H Q
 
 |----------------------|------------|-------0----|--0------------|
 |--------------7-(7)---|-7----7-----|-------0----|--0------------|
 |--------------9-(9)---|-9----9-----|------------|---------------|
 |--------------9-(9)---|-9----9-----|------------|---------------|
 |----------------------|------------|------------|---------------|
 |-0------------------0-|----0-----0-|-8--------8-|--------8------|

[D#m/A]H +E E [Em/B]E Q Q E [Em/F#]E E E +Q. +Q. E E E
 
 |-------------|-----------|-------------|--------------|
 |-------------|-----------|-------------|--------------|
 |-9-----(9)-7h|=9p7-------|-------------|--------------|
 |-------------|------7--5-|-4h5p4-(4)---|-(4)---/4-5h7-|
 |-------------|-----------|-------------|--------------|
 |-------------|-----------|-------------|--------------|

|
| H. H. Q. Q. H.
 
 |-------------|-----------|-0-----------|--------------|
 |-7-----------|-8---------|-0-----------|--------------|
 |-8-----------|-9---------|-0------0----|--------------|
 |-7-----------|-9---------|-------------|--4-----------|
 |-------------|-----------|-------------|--------------|
 |-------------|-----------|-------------|--------------|

[D#m/A] H. [Em/B] H. [Em/F#]E E H +H.
 
 |----------|----------|-------------|---------|
 |----------|----------|-------------|---------|
 |----------|----------|-------------|---------|
 |-/9-------|----------|-------------|---------|
 |----------|-10-------|-7h9h10------|-(10)----|
 |----------|----------|-------------|---------|

|
| H. H. Q. Q. H.
 
 |----------|----------|-0-----------|---------|
 |--7-------|--8-------|-0-----------|---------|
 |--8-------|--9-------|-0------0----|---------|
 |--7-------|--9-------|-------------|---4-----|
 |----------|----------|-------------|---------|
 |----------|----------|-------------|---------|

[Esus2]Q H +H Q [Cmaj7]H E E +H E E
 
 |-----10b12==========|=(10)r----------|----------------|--------------|
 |--------------------|----------------|----------10b11r|=(10)----8-10-|
 |--------------------|----------------|----------------|--------------|
 |--------------------|----------------|----------------|--------------|
 |--------------------|----------------|----------------|--------------|
 |--------------------|----------------|----------------|--------------|

|
| Q. E +E E Q E Q E Q. Q E H Q
 
 |--------------------|----------------|------0---------|---0----------|
 |------------7-(7)---|---7------7-----|------0---------|---0----------|
 |------------9-(9)---|---9------9-----|----------------|--------------|
 |------------9-(9)---|---9------9-----|----------------|--------------|
 |--------------------|----------------|----------------|--------------|
 |-0----------------0-|--------0-----0-|-8---------8----|---------8----|

a [Esus2] q a H +Q E E E E [Cmaj7]E E H +H E E
 
 |-----------------------|-------------------|-------------|--------------|
 |-10s12---10s12---------|-(12)--12h13-10h12-|-8h10--------|--------------|
 |-----------------------|-------------------|------9------|-(9)----/9-11-|
 |-----------------------|-------------------|-------------|--------------|
 |-----------------------|-------------------|-------------|--------------|
 |-----------------------|-------------------|-------------|--------------|

|
| Q. E +E E Q E Q E Q. Q E H Q
 
 |-----------------------|-------------------|--------0----|--0-----------|
 |---------------7-(7)---|---7-------7-------|--------0----|--0-----------|
 |---------------9-(9)---|---9-------9-------|-------------|--------------|
 |---------------9-(9)---|---9-------9-------|-------------|--------------|
 |-----------------------|-------------------|-------------|--------------|
 |-----0---------------0-|--------0--------0-|-8---------8-|---------8----|

[D#m/A] E E E E E E [Em/B] E +E +Q E E [Em/F#] H E +E H Q
 
 |-----8p7--------|-------------------------|----------------------|-----------|
 |-10------10---8-|-10--(10)b12r(10)--10-12-|-/13-------12b13r(12)-|-10-----8--|
 |------------9---|-------------------------|----------------------|-----------|
 |----------------|-------------------------|----------------------|-----------|
 |----------------|-------------------------|----------------------|-----------|
 |----------------|-------------------------|----------------------|-----------|

|
| H. H. Q. Q. H.
 
 |----------------|-------------------------|---0------------------|-----------|
 |--7-------------|--8----------------------|---0------------------|-----------|
 |--8-------------|--9----------------------|---0----0-------------|-----------|
 |--7-------------|--9----------------------|----------------------|--4--------|
 |----------------|-------------------------|----------------------|-----------|
 |----------------|-------------------------|----------------------|-----------|

[D#m/A] E E E E E +E [Em/B] +E E Q E E [Em/F#]H. +H.
 
 |--------------------------|---------------|-----------|--------|
 |-----12-------------------|---------------|-----------|--------|
 |-11-----(11)-9-11-(11)b12r|=(11)-9-7--7h9-|-----------|--------|
 |--------------------------|---------------|-9---------|-(9)----|
 |--------------------------|---------------|-----------|--------|
 |--------------------------|---------------|-----------|--------|

|
| H. H. Q. Q. H.
 
 |--------------------------|---------------|-0---------|--------|
 |--7-----------------------|---8-----------|-0---------|--------|
 |--8-----------------------|---9-----------|-0----0----|--------|
 |--7-----------------------|---9-----------|-----------|--4-----|
 |--------------------------|---------------|-----------|--------|
 |--------------------------|---------------|-----------|--------|

Reprise
[Emadd2]Gtr I[Em7]
Q E E +E E Q Q Q Q E E +E E E E E E E E
 
 ||---------------|----------|--------------|----------------||
 ||o--------------|----------|--------------|---------------o||
 ||-------0-(0)---|-------0--|------0-(0)---|----------------||
 ||-------4-(4)---|-------4--|------4-(4)---|--------5-------||
 ||o----2-------2-|----2-----|----2-------2-|------5---5h7--o||
 ||--0------------|-0--------|-0------------|-0-/7-----------||

[Emadd2]Q E E +E E Q Q Q Q E E +E E E [Em7] E E E E E 8x
 
 ||---------------|----------|--------------|----------------||
 ||o--------------|----------|--------------|---------------o||
 ||-------0-(0)---|-------0--|------0-(0)---|----------------||
 ||-------4-(4)---|-------4--|------4-(4)---|--------5-------||
 ||o----2-------2-|----2-----|----2-------2-|------5---5h7--o||
 ||--0------------|-0--------|-0------------|-0-/7-----------||

Outro
[E6sus2/B] [A6] [E6sus2/B] [A6] 
[4/4] Gtr II
E E E E E E E E E E E E E E E E E E E E E E E E E E E E E E E E 4x
 
 ||----------------0-|-----------------|---------------0-|-------------------||
 ||o---------0-------|-0---------------|---------0-------|-0----------------o||
 ||------6-----6-----|---6---6-----6---|-----6-----6-----|---6---6-----6-----||
 ||----4---4-----4---|-----4-----4---4-|---4---4-----4---|-----4-----4---4---||
 ||o-2---------------|---------0-------|-2---------------|---------0--------o||
 ||------------------|-----------------|-----------------|-------------------||

[E6sus2/B]Gtr II[A6]
[E] [E] [E] [E] [E] [E] [E] [E] [E] [E] [E] [E] [E] [E] [E] [E]  
 
 ||-----------------0-|--------------------|
 ||o----------0-------|---0----------------|
 ||-------6-----6-----|------6---6-----6---|
 ||-----4---4-----4---|--------4-----4---4-|
 ||o--2---------------|------------0-------|
 ||-------------------|--------------------|

|
| Gtr VI
| W +W
 
 ||--14---------------|-(14)---------------|
 ||o--7---------------|--(7)---------------|
 ||---7---------------|--(7)---------------|
 ||-------------------|--------------------|
 ||o--9---------------|--(9)---------------|
 ||-------------------|--------------------|

[E6sus2/B] [A6]  
[E] [E] [E] [E] [E] [E] [E] [E] [E] [E] [E] [E] [E] [E] [E] [E]  
 
 |-----------------0-|---------------------|
 |-----------0-------|---0-----------------|
 |-------6-----6-----|------6---6-----6----|
 |-----4---4-----4---|--------4-----4---4--|
 |--2----------------|------------0--------|
 |-------------------|---------------------|

|
| W +W
 
 |-12----------------|-(12)----------------|
 |--5----------------|--(5)----------------|
 |--6----------------|--(6)----------------|
 |-------------------|---------------------|
 |-(9)---------------|--(9)----------------|
 |-------------------|---------------------|

1.,2.
[E6sus2/B] [A6] 
[E] [E] [E] [E] [E] [E] [E] [E] [E] [E] [E] [E] [E] [E] [E] [E]  
 
 |--------------------------0--|--------------------|
 |----------------0------------|---0----------------|
 |--------6----------6---------|------6---6-----6---|
 |-----4------4---------4------|--------4-----4---4-|
 |--2--------------------------|------------0-------|
 |-----------------------------|--------------------|

|
| Q E E +Q E E +W
 
 |-10-----9---7--(7)----9--10--|-(10)---------------|
 |--7-----5---5--(5)----5---7--|--(7)---------------|
 |--7-----6---4--(4)----6---7--|--(7)---------------|
 |-----------------------------|--------------------|
 |-(9)---(9)-(9)-(9)---(9)-(9)-|--(9)---------------|
 |-----------------------------|--------------------|

[E6sus2/B] E E E E E E E E E E E E [A6]E E E E 3x
 
 |-----------------0-|--------------------||
 |-----------0-------|--0----------------o||
 |-------6-----6-----|-----6---6-----6----||
 |-----4---4-----4---|-------4-----4---4--||
 |--2----------------|-----------0-------o||
 |-------------------|--------------------||

|
| W +W 3x
 
 |--9----------------|-(9)----------------||
 |--5----------------|-(5)---------------o||
 |--6----------------|-(6)----------------||
 |-------------------|--------------------||
 |-(9)---------------|-(9)---------------o||
 |-------------------|--------------------||

3.
[E6sus2/B]  
[E] [E] [E] [E] [E] [E] [E] [E]  
 
 |--------------------------0--|
 |----------------0------------|
 |--------6----------6---------|
 |-----4------4---------4------|
 |--2--------------------------|
 |-----------------------------|

|
| Q E E +Q E E
 
 |-10-----9---7--(7)----9--10--|
 |--7-----5---5--(5)----5---7--|
 |--7-----6---4--(4)----6---7--|
 |-----------------------------|
 |-(9)---(9)-(9)-(9)---(9)-(9)-|
 |-----------------------------|

E E E E [A6]E E E E [E6sus2/B] E E E E E E E E +W
 
 |--------------------|---------------0-----|--------|
 |---0----------------|-----------0---------|--------|
 |------6---6-----6---|-------6-----6-------|--------|
 |--------4

Important: The song above is NOT stored on the Chordie server. The original song is hosted at www.xguitar.com. Chordie works as a search engine and provides on-the-fly formatting. Chordie does not index songs against artists'/composers' will. To remove this song please click here.

Text color:
Chord color:
Chord grids: 
Font size:    
Page size: 

A6 C5 Cmaj7 D D#m/A E Em/B Em/F# Em7 Emadd2 Esus2 F G#m G#m/E G/B G5/D Gm Gm/A Gm/Bb Gsus2/A
Rate #3 of 4 versions

Jango Player

Login - add to songbook

SHARE PAGE  




You need to log in to post comments