Guitar Tabs, Chords and Lyrics
Major upgrade!! After one year development the new version of Chordie is now online! Please give feedback.


Advent  Opeth

As recorded by Opeth
From the 1996 Album MORNINGRISE
Words by Mikael ÅkerfeldtMusic by Mikael Åkerfeldt and Peter Lindgren
Transcribed by Erik Dietrich
Gtr I (E A D G B E) - 'Clean Left'
Gtr II (E A D G B E) - 'Distorted Left'
Gtr III (E A D G B E) - 'Distorted Right'
Gtr IV (E A D G B E) - 'Clean Right'
Gtr V (E A D G B E) - 'Clean (Single)'
Gtr VI (E A D G B E) - 'Center Channel'
Intro
Q=100
[E5] [G/E] [E5] [G/E] 
[4/4] Gtr V
e S S S S e e S S S S e 5x e S S S S e e S S S S e
 
 ||--------------------------------||-------------------------------|
 ||o------------------------------o||-------------------------------|
 ||--------------------------------||-------------------------------|
 ||--9-9-9---9-9--9--9--9----9--9--||-9-9-9---9-9--9--9--9----9--9--|
 ||o-7-7-7-x-7-7-10-10-10-x-10-10-o||-7-7-7-x-7-7-10-10-10-x-10-10--|
 ||--0-0-0---0-0--0--0--0----0--0--||-0-0-0---0-0--0--0--0----0--0--|

|
| Gtrs II, III
| <
| W 5x H H
 
 ||--------------------------------||-------------------------------|
 ||o------------------------------o||-------------------------------|
 ||--------------------------------||-------------------------------|
 ||--------------------------------||--------------2----------------|
 ||o------------------------------o||--------------2----------------|
 ||--------------------------------||--------------0----------------|

Q=140
[E5]Gtr II[E5] [E]
E S S E E S S E E E Q E E +Q E E E S S E E +E E E E
 
 ||--------------------------|-----------------------|----------------------|
 ||o-------------------------|-----------------------|----------------------|
 ||--------------------------|-----------------------|----------------------|
 ||--2-------2---------------|-----------------------|-------------------5--|
 ||o-2-------2---------------|-0-------2-2-(2)---2-2-|-7-------7-(7)---7----|
 ||--0-0-0-0-0-0-0-0-0h==3---|-----------------------|-0-0-0-0-------0------|

|
| Gtr III
| E S S E E S S E S S S S S S S S E E +Q E E E S S E E +E E E E
 
 ||--------------------------|-----------------------|----------------------|
 ||o-------------------------|-----------------------|----------------------|
 ||----------7---------------|-----------------------|----------------------|
 ||--5-5-5-5---5-5-5-5-5-5-5-|-5-5-5-5-4-4-(4)-------|-------------------5--|
 ||o-------------------------|------------------10-7-|-7-------7-(7)-7-7----|
 ||--------------------------|-----------------------|---0-0-0--------------|

1.,2.,3.,4.,5. 6.
[F#]E S S E [B]E +Q E E 6x E S S E [F]E +H +W +W +W
 
 |---------------------||------------------|------------|------------|--------|
 |--------------------o||------------------|------------|------------|--------|
 |---------------------||------------------|------------|------------|--------|
 |-4h5p4S2-1-(1)--1h2--||-4h5p4S2----------|------------|------------|--------|
 |--------------------o||---------0-(0)----|-(0)--------|-(0)--------|-(0)----|
 |---------------------||------------------|------------|------------|--------|

|
| Q E E +Q E E 6x Q E E +H +W +W +W
 
 |---------------------||------------------|------------|------------|--------|
 |--------------------o||------------------|------------|------------|--------|
 |---------------------||------------------|------------|------------|--------|
 |-4-------------------||-4----------------|------------|------------|--------|
 |-------5-2-(2)--2---o||-------5----------|------------|------------|--------|
 |------------------0--||---------1-(1)----|-(1)--------|-(1)--------|-(1)----|

E=160
6[F]/8
H. +H. +H. H.
 
 |---------|----------|----------|-------|
 |---------|----------|----------|-------|
 |---------|----------|----------|-------|
 |---------|----------|----------|-------|
 |-0-------|-(0)------|-(0)------|-------|
 |---------|----------|----------|-------|

|
| H. +H. +H. H.
 
 |---------|----------|----------|-------|
 |---------|----------|----------|-------|
 |---------|----------|----------|-------|
 |---------|----------|----------|-------|
 |---------|----------|----------|-------|
 |-1-------|-(1)------|-(1)------|-------|

E=150(16=s16)
[Amadd9]Gtr I [Amadd9] Gtrs II, I[A5]II[Bb5]
H. +H. H. Q. E. S S S
 
 |-!0-------|-(0)------|-^0-------|----------------|
 |-!0-------|-(0)------|-^0-------|----------------|
 |-!5-------|-(5)------|-^5-------|----------------|
 |-!7-------|-(7)------|-^7-------|---------7-7-8--|
 |-!0-------|-(0)------|-^0-------|---------7-7-8--|
 |----------|----------|----------|---------5-5-6--|

[E5] [Bb5D5] [Bb5] 3[Bb5]/8
Gtr II
S E E S S E E S S E E S S S S S S S 4x S S S S S S
 
 ||------------------|-----------------------||-------------|
 ||o-----------------|----------------------o||-------------|
 ||------------------|-----------------------||-------------|
 ||------------------|----------8-8---8-8-8--||-8-8---8-8-8-|
 ||o-5S2-2-2-5S2-2-2-|--8S7-7-7-8-8---8-8-8-o||-8-8---8-8-8-|
 ||--0-0-0-0-0-0-0-0-|--6S5-5-5-6-6---6-6-6--||-6-6---6-6-6-|

|
| Gtr III
| S E E S S E E S S E E S S S S S S S 4x S S S S S S
 
 ||------------------|-----------------------||-------------|
 ||o-----------------|----------------------o||-------------|
 ||------------------|-----------------------||-------------|
 ||------------------|----------8-8---8-8-8--||-8-8---8-8-8-|
 ||o---7-7---5h7-7---|-10-7-9-9-8-8---8-8-8-o||-8-8---8-8-8-|
 ||--0-----0-------0-|----------6-6---6-6-6--||-6-6---6-6-6-|

6[E5]/8[Bb5A5] [Bb5]
S E E S S E E S S E E S S S S S S S 4x
 
 ||------------------|-----------------------||
 ||o-----------------|----------------------o||
 ||------------------|-----------------------||
 ||------------------|----------8-8---8-8-8--||
 ||o-5S2-2-2-5S2-2-2-|--8S7-7-7-8-8---8-8-8-o||
 ||--0-0-0-0-0-0-0-0-|--6S5-5-5-6-6---6-6-6--||

|
| S E E S S E E S S E E S S S S S S S 4x
 
 ||------------------|-----------------------||
 ||o-----------------|----------------------o||
 ||------------------|-----------------------||
 ||------------------|----------8-8---8-8-8--||
 ||o---7-7---5h7-7---|-10-7-9-9-8-8---8-8-8-o||
 ||--0-----0-------0-|----------6-6---6-6-6--||

E=150(s16=16) Q.=110
6[Am]/4 [B] [Em] 12/8
E S E. E E S S +E E H +H. +Q. Q E
 
 |--------------------------------|---------------------|
 |--------------------------------|---------------------|
 |-5--5-5-------------------------|---------------------|
 |----------2-1--2-4-(4)-5---2----|-(2)------(2)--------|
 |--------------------------------|----------------5h=7-|
 |--------------------------------|---------------------|

|
| Q. E Q. S S H +H. +Q. Q E
 
 |--------------------------------|---------------------|
 |--------------------------------|---------------------|
 |--------------------------------|---------------------|
 |-----------------------5h7-5----|-(5)------(5)--------|
 |-0-------/3-2-------------------|----------------5h=7-|
 |--------------------------------|---------------------|

Verse 1
[Em]Gtrs II, III[Em/Bb]
S S S S E E E E S S S S E E E E Q E E E E Q E E E E
 
 ||----------------------------------|-----------------------|
 ||o---------------------------------|-----------------------|
 ||----------------------------------|-----------------------|
 ||----------------------------------|-----------------------|
 ||o-------------5h7-------------5h7-|--------5h7--------5p1-|
 ||--0-0-0-0-0-0-----0-0-0-0-0-0-----|-6--6-6-----6--6-6-----|

[Am]E E E E E E E E E E E E [F]Q E E E E [G#]E E E Q E 4x
 
 |-------------------------|--------------------------||
 |-------------------------|-------------------------o||
 |-------------------------|--------------------------||
 |-------2-----3-----2-----|--------------------------||
 |-0-0-0---0-0---0-0---0---|------3--------3----5h=7-o||
 |-----------------------3-|-1--1---1-3-4-(4)-4-------||

Q.=100
[Am]Gtr II
Q E E E E Q E Q. Q E E E E Q E Q.
 
 ||-----------------------|----------------------|
 ||o----------------------|----------------------|
 ||-----------4-5--4-2----|----------4-5--4-2----|
 ||--2--2-0-2-------------|-2--2-0-2-------------|
 ||o----------------------|----------------------|
 ||-----------------------|----------------------|

|
| Gtr III
| Q E E E E Q E Q. Q E E E E Q E Q.
 
 ||-----------------------|----------------------|
 ||o----------------------|----------------------|
 ||-----------------------|----------------------|
 ||-------7---------------|------7---------------|
 ||o-0--0---5-8-7--5-7----|-0--0---5-8-7--5-7----|
 ||-----------------------|----------------------|

Q E E E E Q E Q. Q E E E E Q E Q.
 
 |----------------------|----------------------|
 |----------------------|----------------------|
 |----------4-5--4-2----|----------4-5--4-2----|
 |-2--2-0-2-------------|-2--2-0-2-------------|
 |----------------------|----------------------|
 |----------------------|----------------------|

|
| Q E E E E Q E Q. Q E E E E Q E Q.
 
 |----------------------|----------------------|
 |----------------------|----------------------|
 |----------------------|----------------------|
 |------7---------------|------7---------------|
 |-0--0---5-8-7--5-7----|-0--0---5-8-7--5-7----|
 |----------------------|----------------------|

Q E Q E E E E Q. Q E Q E E E E Q.
 
 |----------------------|----------------------|
 |----------------------|----------------------|
 |----------------------|----------------------|
 |----------------------|----------------------|
 |-2--3-2--0---0-3-2----|-2--3-2--0---0-3-2----|
 |-----------1----------|-----------1----------|

|
| Q E Q E E E E Q. Q E Q E E E E Q.
 
 |----------------------|----------------------|
 |----------------------|----------------------|
 |----------------------|----------------------|
 |----------------------|----------------------|
 |-2--3-2--0---0-3-2----|-2--3-2--0---0-3-2----|
 |-----------1----------|-----------1----------|

1.
Q E Q E E E E Q. Q E Q E E E E Q.
 
 |----------------------|------------------------||
 |----------------------|-----------------------o||
 |----------------------|------------------------||
 |----------------------|------------------------||
 |-2--3-2--0---0-3-2----|-2--3-2--0---0-3-2-----o||
 |-----------1----------|-----------1------------||

|
| Q E Q E E E E Q. Q E Q E E E E Q.
 
 |----------------------|------------------------||
 |----------------------|-----------------------o||
 |-4--5-4--2---2-5-4----|-4--5-4--2---2-5-4------||
 |-----------3----------|-----------3------------||
 |----------------------|-----------------------o||
 |----------------------|------------------------||

2.
Q E Q E [B5]E E E E Q W
 
 |----------------------|------|
 |----------------------|------|
 |-----------4-4-4-4----|------|
 |-----------4-4-4-4----|------|
 |-2--3-2--0-2-2-2-2----|------|
 |----------------------|------|

|
| Q E Q E E E E E Q W
 
 |----------------------|------|
 |----------------------|------|
 |-4--5-4--2-4-4-4-4----|------|
 |-----------4-4-4-4----|------|
 |-----------2-2-2-2----|------|
 |----------------------|------|

1st Interlude
Q.=115
D5 D5/A N.C. D5 D5/A N.C.
Gtr I
[E] [E] [E] [E] [E] [E] [E] [E] [E] [E] [E] [E] [E] [E] [E] [E] [E] [E] [E] [E] [E] [E] [E] [E]  
 
 |-------------------------|-------------------------|
 |-------------------------|-------------------------|
 |-----7-----7-------------|-----7-----7-------------|
 |---7-----7-----7---7---7-|---7-----7-----7---7---7-|
 |-5-----0-----------------|-5-----0-----------------|
 |-------------6---5---0---|-------------6---5---0---|

|
| Gtr IV
| W E E E E E E E E E E E E
 
 |-------------------------|-------------------------|
 |-------------------------|-------------------------|
 |-------------------------|-----7-----7-------------|
 |-------------------------|---7-----7-----7---7---7-|
 |-------------------------|-5-----0-----------------|
 |-------------------------|-------------6---5---0---|

D5 D5/A N.C. D5 D5/A N.C.
Gtrs I, IV
[E] [E] [E] [E] [E] [E] [E] [E] [E] [E] [E] [E] [E] [E] [E] [E] [E] [E] [E] [E] [E] [E] [E] [E]  
 
 ||--------------------------|--------------------------||
 ||o-------------------------|-------------------------o||
 ||------7-----7-------------|-----7-----7--------------||
 ||----7-----7-----7---7---7-|---7-----7-----7---7---7--||
 ||o-5-----0-----------------|-5-----0-----------------o||
 ||--------------6---5---0---|-------------6---5---0----||

Bsus4 F#m Gsus2 Bsus4 N.C.
[E] [E] [E] [E] [E] [E] [E] [E] [E] [E] [E] [E] [E] [E] [E] [E] [E] [E] [E] [E] [E] [E] [E] [E]  
 
 ||-----------0---------------|----------0---------------|
 ||o--------0---0-------------|--------0---0-------------|
 ||------11-------------------|-----11-------------------|
 ||----9--------------0-----0-|---9------------0---0---0-|
 ||o----------------0-----0---|--------------------------|
 ||--7------------2-----3-----|-7------------2---3---0---|

Bsus4 F#m G5 Bsus4 N.C.
[E] [E] [E] [E] [E] [E] [E] [E] [E] [E] [E] [E] [E] [E] [E] [E] [E] [E] [E] [E] [E] [E] [E] [E]  
 
 |----------0---------------|----------0----------------||
 |--------0---0-------------|--------0---0-------------o||
 |-----11-------------------|-----11--------------------||
 |---9--------------0-----0-|---9------------0---0---0--||
 |----------------0-----5---|--------------------------o||
 |-7------------2-----3-----|-7------------2---3---0----||

D5 D5/A N.C.
[E] [E] [E] [E] [E] [E] [E] [E] [E] [E] [E] [E]  
 
 ||--------------------------|
 ||o-------------------------|
 ||------7-----7-------------|
 ||----7-----7-----7---7---7-|
 ||o-5-----0-----------------|
 ||--------------6---5---0---|

1.,2.,3. 4.
D5 D5/A N.C. D
E E E E E E E E E E E E E Q E E E e E e E e E
 
 |--------------------------||------------------------|
 |-------------------------o||------------------------|
 |-----7-----7--------------||-7----7---7-7---7---7---|
 |---7-----7-----7---7---7--||------------------------|
 |-5-----0-----------------o||-5----5---5-5---5---5---|
 |-------------6---5---0----||------------------------|

[B5]Gtrs I, IV[F#5] [G5] [B5] [F#5] [G5] [E5]
[E] [E] [E] [E] [E] [E] [E] [E] [E] [E] [E] [E] [E] [E] [E] [E] [E] [E] [E] [E] [E] [E] [E] [E]  
 
 ||------------0-----------------|-----------0---------------|
 ||o---------0---0---------------|---------0---0-------------|
 ||-------11---------------------|------11-------------------|
 ||-----9---------------0------0-|----9------------0---0---0-|
 ||o------------------0------0---|---------------------------|
 ||--7-------------2------3------|-7-------------2---3---0---|

|
| Gtrs II, III
| H. Q. Q. H. Q Q Q
 
 ||------------------------------|---------------------------|
 ||o-----------------------------|---------------------------|
 ||--4---------------------------|-4-------------------------|
 ||--4-------------4------5------|-4-------------4---5---2---|
 ||o-2-------------4------5------|-2-------------4---5---2---|
 ||----------------2------3------|---------------2---3---0---|

[B5] [F#5] [G5] [B5] [F#5] [G5] [E5] 
[E] [E] [E] [E] [E] [E] [E] [E] [E] [E] [E] [E] [E] [E] [E] [E] [E] [E] [E] [E] [E] [E] [E] [E]  
 
 |-----------0-----------------|-----------0----------------||
 |---------0---0---------------|---------0---0-------------o||
 |------11---------------------|------11--------------------||
 |----9---------------0------0-|----9------------0---0---0--||
 |------------------0------5---|---------------------------o||
 |-7-------------2------3------|-7-------------2---3---0----||

|
| H. Q. Q. H. Q Q Q
 
 |-----------------------------|----------------------------||
 |-----------------------------|---------------------------o||
 |-4---------------------------|-4--------------------------||
 |-4-------------4------5------|-4-------------4---5---2----||
 |-2-------------4------5------|-2-------------4---5---2---o||
 |---------------2------3------|---------------2---3---0----||

Q.=135
[B5]Gtr V [D] G
q E E E E q q q q E E E E q q q
 
 |------------------------|---------------------|
 |------------------------|---------------------|
 |------------------------|---------------------|
 |-------4------4---4-----|------4-----4--4-----|
 |-2---2----2-2--------2--|-5--5---5-5-------5--|
 |------------------------|---------------------|

|
| Gtrs II, III G
| e Q Q. H. W
 
 |------------------------|---------------------|
 |------------------------|---------------------|
 |-4----------------------|---------------------|
 |-4----------------------|---------------------|
 |-2----------------------|---------------------|
 |------------------------|---------------------|

t[Cm]r II[G] [F#mD] [C#] [A] [F#m]
Q E Q. Q. Q. Q Q Q Q Q Q
 
 |-------------------------|---------------------|
 |-------------------------|----------2--2-------|
 |-------------------------|-4--2-----------2----|
 |-2--2-2------------------|-------4-------------|
 |-------------5-----4-----|---------------------|
 |-------------------------|---------------------|

|
|tr III
| q E E E E Q Q Q Q Q Q Q Q Q
 
 |-------------------------|---------------------|
 |-------------------------|---------------------|
 |-------------------------|---------------------|
 |------6------7---6----4--|-5--4----------------|
 |-4--4----4-4-------------|-------5--4----------|
 |-------------------------|-------------5--2----|

Verse 2
$
[Bm]H. Q Q Q [D]H. Q Q Q
 
 ||-----------------------|----------------------|
 ||o----------------------|----------------------|
 ||-----------------------|----------------------|
 ||--4-----------2--0--2--|-4-----------2--0--2--|
 ||o----------------------|----------------------|
 ||-----------------------|----------------------|

|
| q E E E E q q Q q E E E E q q Q
 
 ||-----------------------|----------------------|
 ||o----------------------|----------------------|
 ||-----------------------|----------------------|
 ||--------4-----4--4-----|-------4-----4--4-----|
 ||o-2---2---2-2-------2--|-5---5---5-5-------5--|
 ||-----------------------|----------------------|

To Coda
[C#m]H. Q. Q. [G]Q [F#mD]Q Q [C#]Q [A]Q [F#m]Q 4x
 
 |-------------------------|--------------------||
 |-------------------------|----------2--2-----o||
 |-------------------------|-4--2-----------2---||
 |-2-----------------------|-------4------------||
 |-------------5-----4-----|-------------------o||
 |-------------------------|--------------------||

|
| q E E E E q q Q Q Q Q Q Q Q 4x
 
 |-------------------------|--------------------||
 |-------------------------|-------------------o||
 |-------------------------|--------------------||
 |-------6-----7---6----4--|-5--4---------------||
 |-4---4---4-4-------------|-------5--4--------o||
 |-------------------------|-------------5--2---||

[B5]Gtr V[D]
q E E E E q q q q E E E E q q q
 
 |----------------------|----------------------|
 |----------------------|----------------------|
 |----------------------|----------------------|
 |-------4-----4--4-----|-------4-----4--4-----|
 |-2---2---2-2-------2--|-5---5---5-5-------5--|
 |----------------------|----------------------|

|
| Gtr VI
| < <
| W. W.
 
 |----------------------|----------------------|
 |----------------------|----------------------|
 |----------------------|----------------------|
 |-4--------------------|-0--------------------|
 |----------------------|----------------------|
 |----------------------|----------------------|

C#m N.C.
q E E E E q q q Q E.. +T Q Q Q Q
 
 |----------------------|--------------------------|
 |----------------------|--------------------------|
 |----------------------|--------------------------|
 |-------6-----7--6--4--|-5---4---(4)S0------------|
 |-4---4---4-4----------|----------------4---------|
 |----------------------|--------------------5--2--|

|
| < < <
| W. H. H.
 
 |----------------------|--------------------------|
 |----------------------|--------------------------|
 |----------------------|-2--------------4---------|
 |-2--------------------|--------------------------|
 |----------------------|--------------------------|
 |----------------------|--------------------------|

[B5]q E E E E q q q [D] q E E E E q q q
 
 |----------------------|-----------------------|
 |----------------------|-----------------------|
 |----------------------|-----------------------|
 |-------4-----4--4-----|--------4-----4--4-----|
 |-2---2---2-2-------2--|--5---5---5-5-------5--|
 |----------------------|-----------------------|

|
| <
| W. +W.
 
 |----------------------|-----------------------|
 |----------------------|-----------------------|
 |-6--------------------|-(6)-------------------|
 |----------------------|-----------------------|
 |----------------------|-----------------------|
 |----------------------|-----------------------|

D.S. al Coda
[C#m] Gt[G]r I[F#mD]I[C#] [A] [F#m]
q E E E E q q q Q Q Q Q Q Q
 
 |-----------------------|-------------------|
 |-----------------------|----------2--2-----|
 |-----------------------|-4--2-----------2--|
 |--------6-----7--6--4--|-------4-----------|
 |--4---4---4-4----------|-------------------|
 |-----------------------|-------------------|

|
| Gtr III
| >
| +W. Q Q Q Q Q Q
 
 |-----------------------|-------------------|
 |-----------------------|-------------------|
 |-(6)-------------------|-------------------|
 |-----------------------|-5--4--------------|
 |-----------------------|-------5--4--------|
 |-----------------------|-------------5--2--|

&
C# N.C.
Q E E E E Q E E E E Q Q Q Q Q Q
 
 |-----------------------|-------------------|
 |-----------------------|-------------------|
 |-----------------------|-------------------|
 |-----------------------|-------0--2--0--4--|
 |-4--4-4-4-4-4--4-4-4-4-|-1--4--------------|
 |-----------------------|-------------------|

|
| Q E E E E Q E E E E Q Q Q Q Q Q
 
 |-----------------------|-------------------|
 |-----------------------|-------------------|
 |-----------------------|-------------------|
 |-----------------------|-------0--2--0--4--|
 |-4--4-4-4-4-4--4-4-4-4-|-1--4--------------|
 |-----------------------|-------------------|

[D]Q E E E E Q E E E E Q E E E E Q E E E E
 
 |-----------------------|-----------------------|
 |-----------------------|-----------------------|
 |-----------------------|------------4--4-4-4-4-|
 |-4--4-4-4-4-5--5-5-5-5-|-7--7-7-7-7------------|
 |-----------------------|-----------------------|
 |-----------------------|-----------------------|

|
| Q E E E E Q E E E E Q E E E E Q E E E E
 
 |-----------------------|-----------------------|
 |-----------------------|-----------------------|
 |-----------------------|-----------------------|
 |-----------------------|-----------------------|
 |-5--5-5-5-5-5--5-5-5-5-|-5--5-5-5-5-5--5-5-5-5-|
 |-----------------------|-----------------------|

A N.C.
Q E E E E Q E E E E Q Q Q Q Q Q
 
 |-------------------------|-------------------|
 |-------------------------|-------------------|
 |-6---6-6-6-6-6---6-6-6---|-------------------|
 |-------------------------|-------0--2--0--4--|
 |-----------------------0-|-1--4--------------|
 |-------------------------|-------------------|

|
| E E E E E E E E E E E E Q Q Q Q Q Q
 
 |-------------------------|-------------------|
 |-------------------------|-------------------|
 |-------------------------|-------------------|
 |-------------------------|-------0--2--0--4--|
 |-------------------------|-1--4--------------|
 |-5-5-5-5-5-5-5-5-5-5-5-5-|-------------------|

[B5]Q E E E E Q E E E E [F#5]Q E Q. Q E Q.
 
 |-----------------------|---------------------|
 |-----------------------|---------------------|
 |-----------------------|---------------------|
 |-4--4-4-4-4-4--4-4-4-4-|-4--4------4--4------|
 |-----------------------|-4--4------4--4------|
 |-----------------------|-2--2------2--2------|

|
| Q E E E E Q E E E E Q E Q. Q E Q.
 
 |-----------------------|---------------------|
 |-----------------------|---------------------|
 |-----------------------|---------------------|
 |-----------------------|-4--4------4--4------|
 |-2--2-2-2-2-2--2-2-2-2-|-4--4------4--4------|
 |-----------------------|-2--2------2--2------|

Second Interlude
Q=140
[Bm] [C#m] [G] [Em] [D] 
[4/4] H E E E E +W Q. E Q E E +Q. E H
 
 |--------------------|-----------------|---------------|--------------|
 |--------------------|-----------------|---------------|--------------|
 |--------------------|-----------------|---------------|--------------|
 |------------4-2-0-2-|-(2)-------------|---------------|--------------|
 |-2------------------|-----------------|-5----x-2--0-2-|-(2)----------|
 |--------------------|-----------------|---------------|-------3-5----|

|
| Q +E S S Q E E +Q. E Q. E Q. E Q E E +H H
 
 |--------------------|-----------------|---------------|--------------|
 |--------------------|-----------------|---------------|--------------|
 |--------4-4-4-------|-----------------|--------7--4---|--------------|
 |-4--(4)-------------|-----------------|-------------5-|-(5)-----4----|
 |----------------5-4-|-(4)---5-7-------|-------------7-|-(7)-----5----|
 |--------------------|--------------7\-|-3----x--------|--------------|

[Bm]Gtr I[G] [Em] [D]
Q. +E Q E E +Q. E E Q. Q. E Q E E +Q. E H 4x
 
 ||-------------------|----------------|---------------|---------------||
 ||o------------------|----------------|---------------|--------------o||
 ||-------------------|----------------|--------7------|---------------||
 ||--4----(4)S9-------|----------------|-----------7-5-|-(5)---7-4-----||
 ||o--------------5-4-|-(4)---5-5h7----|-5----x------7-|-(7)-----5----o||
 ||-------------------|----------------|-3-------------|---------------||

|
| Gtr IV
| H E E E E +Q. E E Q. H Q E E +Q. E H 4x
 
 ||-------------------|----------------|---------------|---------------||
 ||o------------------|----------------|---------------|--------------o||
 ||-------------------|----------------|---------------|---------------||
 ||-----------4-2-----|----------------|---------------|---------------||
 ||o-2------------5-4-|-(4)---5-5h7----|-5------2--0-2-|-(2)----------o||
 ||-------------------|----------------|---------------|-------3-5-----||

[Amadd2]Gtr II
< >
H +H +W
 
 ||--------------------|-------------------|
 ||o-------------------|-------------------|
 ||--------------------|-------------------|
 ||--------------------|-------------------|
 ||o-0-------(0)-------|-(0)---------------|
 ||--------------------|-------------------|

|
| Gtr IV
| E E E E E E E E E E E E E E E E
 
 ||--------------------|-------------------|
 ||o-------------------|-------------------|
 ||-----------5--------|-----------5-------|
 ||------9-------9---9-|-------9-----9-----|
 ||o---7---7-------7---|-----7---7-----7-5-|
 ||--5-----------------|--5----------------|

[C#m]< >
H +H +W
 
 |-------------------|--------------------||
 |-------------------|-------------------o||
 |-------------------|--------------------||
 |-------------------|--------------------||
 |-------------------|-------------------o||
 |-2-------(2)-------|-(2)----------------||

|
| E E E E E E E E E E E E E E E E
 
 |-------------------|--------------------||
 |-------------------|-------------------o||
 |----------6--------|-----------6--------||
 |-----6-------6---6-|-------6-----6---6--||
 |---7---7-------7---|-----7---7-----7---o||
 |-9-----------------|--9-----------------||

[Amadd2]< >
H +H +W
 
 ||--------------------|-------------------|
 ||o-------------------|-------------------|
 ||--------------------|-------------------|
 ||--------------------|-------------------|
 ||o-7-------(7)-------|-(7)---------------|
 ||--------------------|-------------------|

|
| E E E E E E E E E E E E E E E E
 
 ||--------------------|-------------------|
 ||o-------------------|-------------------|
 ||-----------5--------|-----------5-------|
 ||------9-------9---9-|-------9-----9-----|
 ||o---7---7-------7---|-----7---7-----7-5-|
 ||--5-----------------|--5----------------|

[C#m]< >
~~~
H +H +W
 
 |-------------------|--------------------||
 |-------------------|-------------------o||
 |-------------------|--------------------||
 |-------------------|--------------------||
 |-4-------(4)-------|-(4)---------------o||
 |-------------------|--------------------||

|
| E E E E E E E E E E E E E E E E
 
 |-------------------|--------------------||
 |-------------------|-------------------o||
 |----------6--------|-----------6--------||
 |-----6-------6---6-|-------6-----6---6--||
 |---7---7-------7---|-----7---7-----7---o||
 |-9-----------------|--9-----------------||

[Bm]Gtr I[G] [Em] [D]
Q. +E Q E E +Q. E E Q. Q. E Q E E +Q. E H 4x
 
 ||-------------------|----------------|---------------|---------------||
 ||o------------------|----------------|---------------|--------------o||
 ||-------------------|----------------|--------7------|---------------||
 ||--4----(4)S9-------|----------------|-----------7-5-|-(5)---7-4-----||
 ||o--------------5-4-|-(4)---5-5h7----|-5----x------7-|-(7)-----5----o||
 ||-------------------|----------------|-3-------------|---------------||

|
| Gtr IV
| H E E E E +Q. E E Q. H Q E E +Q. E H 4x
 
 ||-------------------|----------------|---------------|---------------||
 ||o------------------|----------------|---------------|--------------o||
 ||-------------------|----------------|---------------|---------------||
 ||-----------4-2-----|----------------|---------------|---------------||
 ||o-2------------5-4-|-(4)---5-5h7----|-5------2--0-2-|-(2)----------o||
 ||-------------------|----------------|---------------|-------3-5-----||

[Amadd2]Gtr II
< >
H +H +W
 
 |-------------------|-------------------|
 |-------------------|-------------------|
 |-------------------|-------------------|
 |-------------------|-------------------|
 |-0-------(0)-------|-(0)---------------|
 |-------------------|-------------------|

|
| Gtr IV
| E E E E E E E E E E E E E E E E
 
 |-------------------|-------------------|
 |-------------------|-------------------|
 |----------5--------|-----------5-------|
 |-----9-------9---9-|-------9-----9-----|
 |---7---7-------7---|-----7---7-----7-5-|
 |-5-----------------|--5----------------|

[C#m]< >
H +H +W
 
 |-------------------|--------------------|
 |-------------------|--------------------|
 |-------------------|--------------------|
 |-------------------|--------------------|
 |-------------------|--------------------|
 |-2-------(2)-------|-(2)----------------|

|
| E E E E E E E E E E E E E E E E
 
 |-------------------|--------------------|
 |-------------------|--------------------|
 |----------6--------|-----------6--------|
 |-----6-------6---6-|-------6-----6---6--|
 |---7---7-------7---|-----7---7-----7----|
 |-9-----------------|--9-----------------|

[Amadd2]< >
H +H +W
 
 |-------------------|-------------------|
 |-------------------|-------------------|
 |-------------------|-------------------|
 |-------------------|-------------------|
 |-0-------(0)-------|-(0)---------------|
 |-------------------|-------------------|

|
| E E E E E E E E E E E E E E E E
 
 |-------------------|-------------------|
 |-------------------|-------------------|
 |----------5--------|-----------5-------|
 |-----9-------9---9-|-------9-----9-----|
 |---7---7-------7---|-----7---7-----7-5-|
 |-5-----------------|--5----------------|

[C#m]<
H +H Q. E E Q +E
 
 |-------------------|----------------------|
 |-------------------|----------------------|
 |-------------------|----------------------|
 |-------------------|----------------------|
 |-------------------|--------5-5-7---(7)\--|
 |-2-------(2)-------|-0--------------------|

|
| E E E E E E E E E E E E E E E E
 
 |-------------------|----------------------|
 |-------------------|----------------------|
 |----------6--------|----------6-----------|
 |-----6-------6---6-|------6-----6----6----|
 |---7---7-------7---|----7---7-----7-------|
 |-9-----------------|-9--------------------|

[Amadd2]W +W [C#m]W +W
 
 |-----------------|-------------------|-----------------|--------------------|
 |-----------------|-------------------|-----------------|--------------------|
 |-----------------|-------------------|-----------------|--------------------|
 |-----------------|-------------------|-----------------|--------------------|
 |-3---------------|-(3)---------------|-0---------------|-(0)----------------|
 |-----------------|-------------------|-----------------|--------------------|

|
| E E E E E E E E E E E E E E E E E E E E E E E E E E E E E E E E
 
 |-----------------|-------------------|-----------------|--------------------|
 |-----------------|-------------------|-----------------|--------------------|
 |---------5-------|-----------5-------|---------6-------|-----------6--------|
 |-----9-----9---9-|-------9-----9-----|-----6-----6---6-|-------6-----6---6--|
 |---7---7-----7---|-----7---7-----7-5-|---7---7-----7---|-----7---7-----7----|
 |-5---------------|--5----------------|-9---------------|--9-----------------|

>
+W +W W W
 
 |-------------------|-------------------|-----------------|------------------|
 |-------------------|-------------------|-----------------|------------------|
 |-------------------|-------------------|-----------------|------------------|
 |-------------------|-------------------|-----------------|------------------|
 |-(0)---------------|-(0)---------------|-----------------|------------------|
 |-------------------|-------------------|-----------------|------------------|

|
| E E E E E E E E E E E E E E E E E E E E E E E E E E E E E E E E
 
 |-------------------|-------------------|-----------------|------------------|
 |-------------------|-------------------|-----------------|------------------|
 |-----------5-------|-----------5-------|---------6-------|---------6--------|
 |-------9-----9---9-|-------9-----9-----|-----6-----6---6-|-----6-----6---6--|
 |-----7---7-----7---|-----7---7-----7-5-|---7---7-----7---|---7---7-----7----|
 |--5----------------|--5----------------|-9---------------|-9----------------|

[Amadd2]Gtr I
E E Q +Q E E +W
 
 ||--------------------|-------------------|
 ||o---------------1-1-|-(1)---------------|
 ||------4---(4)-----4-|-(4)---------------|
 ||----2---------------|-------------------|
 ||o-0-----------------|-------------------|
 ||--------------------|-------------------|

|
| Gtr IV
| E E E E E E E E E E E E E E E E
 
 ||--------------------|-------------------|
 ||o-------------------|-------------------|
 ||-----------5--------|-----------5-------|
 ||------9-------9---9-|-------9-----9-----|
 ||o---7---7-------7---|-----7---7-----7-5-|
 ||--5-----------------|--5----------------|

[C#m]E E Q +Q E E +E E E E E E Q 4x
 
 |-------------------|--------------------||
 |-----9---(9)---3-2-|-(2)-3p2-----2-----o||
 |---6-------------4-|-(4)-------4--------||
 |-7---------------4-|-(4)-----4-----4----||
 |-----------------2-|-(2)---------------o||
 |-------------------|--------------------||

|
| E E E E E E E E E E E E E E E E 4x
 
 |-------------------|--------------------||
 |-------------------|-------------------o||
 |----------6--------|-----------6--------||
 |-----6-------6---6-|-------6-----6---6--||
 |---7---7-------7---|-----7---7-----7---o||
 |-9-----------------|--9-----------------||

6[F6]/8 [F] 4[Am]/4
Q. E Q W +W +W +W
 
 |------------|-----------|-------------|-------------|---------|
 |------------|-----------|-------------|-------------|---------|
 |-7----10----|--9--------|--(9)--------|--(9)--------|--(9)----|
 |-7-----7----|--7--------|--(7)--------|--(7)--------|--(7)----|
 |-8-----8----|--7--------|--(7)--------|--(7)--------|--(7)----|
 |------------|-----------|-------------|-------------|---------|

|
| Q. E Q W +W +W +W
 
 |------------|-----------|-------------|-------------|---------|
 |------------|-----------|-------------|-------------|---------|
 |-7----10----|--9--------|--(9)--------|--(9)--------|--(9)----|
 |-7-----7----|-10--------|-(10)--------|-(10)--------|-(10)----|
 |-8-----8----|-----------|-------------|-------------|---------|
 |------------|-----------|-------------|-------------|---------|

Verse 3
Q.=140
1[Dm]2/8[A5] [Gm] [F]
Gtr II
H. H. H. H.
 
 |-----------------|---------------------|
 |-----------------|---------------------|
 |-----------------|---------------------|
 |-3-------2-------|-5-----------3-------|
 |-----------------|---------------------|
 |-----------------|---------------------|

|
| Gtr III
| H. H. Q E E E E H.
 
 |-----------------|---------------------|
 |-----------------|---------------------|
 |-----------------|-------7-5-----------|
 |-----------------|-8---8-----8-7-------|
 |-5-------0-------|---------------------|
 |-----------------|---------------------|

[A]Q E E E E [E]E E E Q. [A]+H. [D5]Q E q E
 
 |------------------------|-------------------------|
 |------------------------|-------------------------|
 |------------------------|-------------------------|
 |-7---8-7-5--------------|--------------7--7-7-----|
 |-----------8-7h8p7-7----|-(7)----------7--7-7-----|
 |------------------------|--------------5--5-5-----|

|
| W. Q E E E E Q E q E
 
 |------------------------|-------------------------|
 |------------------------|-------------------------|
 |------------------------|-------------------------|
 |-7----------------------|--7---8-7-5---7--7-7-----|
 |------------------------|------------7-7--7-7-----|
 |------------------------|--------------5--5-5-----|

Verse 3
[Dm]Q E E E E [A5]Q E E E E [Gm]Q E E E E [F]Q E E E E
 
 |-----------------------|-----------------------|
 |-----------------------|-----------------------|
 |-----------------------|-----------------------|
 |-----------------------|-5--5-5-5-5------------|
 |-8--8-8-8-8-7--7-7-7-7-|------------8--8-8-8-8-|
 |-----------------------|-----------------------|

|
| Q E E E E Q E E E E Q E E E E Q E E E E
 
 |-----------------------|-----------------------|
 |-----------------------|-----------------------|
 |-----------------------|------7-5--------------|
 |-----------------------|-8--8-----8-7--7-7-7-7-|
 |-5--5-5-5-5-0--0-0-0-0-|-----------------------|
 |-----------------------|-----------------------|

[A]Q E E E E [E]E E E Q E [A]E E E Q E E E [F]E Q.
 
 |-----------------------|-----------------------|
 |-----------------------|-----------------------|
 |-----------------------|-----------------------|
 |-7--8-7-5--------------|-------7--5-7-7--------|
 |----------8-7h8p7-7--0-|-0h5h7----------8-8----|
 |-----------------------|-----------------------|

|
| Q E E E E E E E Q E E E E Q E E E E Q.
 
 |-----------------------|-----------------------|
 |-----------------------|-----------------------|
 |-----------------------|-----------------------|
 |-7--8-7-5--------------|-------7--7-7h8p7-7----|
 |----------8-7h8p7-7--7-|-0h5h7-----------------|
 |-----------------------|-----------------------|

[D5]Q E E E E [A5]Q E E E E [Gm]Q E E E E [F]Q E E E E
 
 ||------------------------|-----------------------|
 ||o-----------------------|-----------------------|
 ||------------------------|-----------------------|
 ||------------------------|-5--5-5-5-5------------|
 ||o-8--8-8-8-8-7--7-7-7-7-|------------8--8-8-8-8-|
 ||------------------------|-----------------------|

|
 
 | PM----| PM----|

| Q E E E E Q E E E E Q E E E E Q E E E E
 
 ||------------------------|-----------------------|
 ||o-----------------------|-----------------------|
 ||--7----------2----------|------7-5--------------|
 ||--7--7-7-7-7-2--2-2-2-2-|-8--8-----8-7--7-7-7-7-|
 ||o-5--5-5-5-5-0--0-0-0-0-|-----------------------|
 ||------------------------|-----------------------|

[A]Q E E E E [E]E E E Q E [A]E E E Q E E E [Fm]E Q. 5x
 
 |-----------------------|------------------------||
 |-----------------------|-----------------------o||
 |-----------------------|------------------------||
 |-7--8-7-5--------------|-------7--5-7-7---------||
 |----------8-7h8p7-7--0-|-0h5h7----------8-8----o||
 |-----------------------|------------------------||

|
| Q E E E E E E E Q E E E E Q E E E E Q. 5x
 
 |-----------------------|------------------------||
 |-----------------------|-----------------------o||
 |-----------------------|------------------------||
 |-7--8-7-5--------------|-------7--7-7h8p7-7-----||
 |----------8-7h8p7-7--7-|-0h5h7-----------------o||
 |-----------------------|------------------------||

1.,2.,3.,4.,5.,6.,7. 8.
[E5]Q E E E E [B5]Q E E E E [Em]Q E E E E [A]Q E E E E [Em]Q E E E E [D]Q. Q E
 
 ||------------------------|------------------------||-----------------------|
 ||o-----------------------|-----------------------o||-----------------------|
 ||------------------------|------------------------||-----------------------|
 ||------------------------|-5--5-5-4-5-4-----------||-5--5-5-4-5-4----------|
 ||o-7--7-7----------------|---------------5-5-5-5-o||-----------------/5----|
 ||---------3-5-7--7-8-7-7-|------------------------||-----------------------|

|
| Q E E E E Q E E E E Q E E E E Q E E E E Q E E E E Q. Q E
 
 ||------------------------|------------------------||-----------------------|
 ||o-----------------------|-----------------------o||-----------------------|
 ||------------------------|------------------------||-----------------------|
 ||-------9-7-5------------|------------------------||-----------------/7----|
 ||o-7--7-------9--9-9-9-9-|-7--7-7-----5--5-5-5-5-o||-7--7-7-----5----------|
 ||------------------------|--------3-5-------------||--------3-5------------|

Third Interlude
Q=140
C#5 N.C.
[4/4] E Q. H W
 
 |-----------------------|------------------|
 |-----------------------|------------------|
 |-6---------------------|------------------|
 |-6---------------------|------------------|
 |-4---------------------|------------------|
 |-----------------------|------------------|

|
| PM---| PM--| PM|
| E S S E E S S E E E E E E E Q Q
 
 |-----------------------|------------------|
 |-9--------9-------10S9-|---10--------/10--|
 |-----------------------|-7--------7-------|
 |-6-6--6-6-6-6-6-6--7S6-|----7---------/7--|
 |-----------------------|-5----5-5-5-------|
 |-----------------------|------------------|

1. 2.
N.C.
W W H Q Q
 
 ||-----------------------|-------------------||------------------|
 ||o----------------------|------------------o||-------------/10--|
 ||-----------------------|-------------------||----------7-------|
 ||-----------------------|-------------------||--------------/7--|
 ||o----------------------|------------------o||----------5-------|
 ||-----------------------|-------------------||------------------|

|
| PM--| PM--| PM| PM|
| E S S E E S S E E E E E E E Q Q E E E E Q Q
 
 ||-----------------------|-------------------||------------------|
 ||o-9-------9-------10S9-|---10--------/10--o||---10--------/10--|
 ||-----------------------|-7--------7--------||-7--------7-------|
 ||--6-6-6-6-6-6-6-6--7S6-|----7---------/7---||----7---------/7--|
 ||o----------------------|-5----5-5-5-------o||-5----5-5-5-------|
 ||-----------------------|-------------------||------------------|

Gtrs II, III
PM--| PM--|
E S S E E S S E E E E Q. Q Q
 
 |----------------------|---------------|
 |-9-------9-------10S9-|---------------|
 |----------------------|-7---------/9--|
 |-6-6-6-6-6-6-6-6--7S6-|--------7------|
 |----------------------|-5---------/7--|
 |----------------------|--------5------|

1.,2.,3. 4.
N.C.
Gtrs II, III
PM--| PM--|
E S S E E S S E E E E E E E Q Q E Q. Q Q
 
 ||----------------------|-----------------||---------------|
 ||o---------------------|----------------o||---------------|
 ||--8-------8-------9S8-|---9--------/9---||-----------/7--|
 ||----------------------|-7-------7-------||-7------5------|
 ||o-6-6-6-6-6-6-6-6-7S6-|---7--------/7--o||-----------/5--|
 ||----------------------|-5---5-5-5-------||-5------3------|

1.,2.,3. 4.
PM--| PM--|[E5]
E S S E E S S E E E E E E E Q Q E Q. q q q Q H
 
 ||----------------------|-----------------||--------------|------------|
 ||o---------------------|----------------o||--------------|------------|
 ||--6-------6-------7S6-|---7----

Important: The song above is NOT stored on the Chordie server. The original song is hosted at www.xguitar.com. Chordie works as a search engine and provides on-the-fly formatting. Chordie does not index songs against artists'/composers' will. To remove this song please click here.

Text color:
Chord color:
Chord grids: 
Font size:    
Page size: 

A A5 Am Amadd2 Amadd9 B B5 Bb5 Bm C# C#m Cm D D5 Dm E E5 Em Em/Bb F F# F#5 F#m F6 Fm G G# G/E G5 Gm
Rate #1 of 2 versions

Jango Player

Login - add to songbook

SHARE PAGE  



You need to log in to post comments