Guitar Tabs, Chords and Lyrics
Major upgrade!! After one year development the new version of Chordie is now online! Please give feedback.


To Bid You Farewell  Opeth

As recorded by Opeth
From the 1996 Album MORNINGRISE
Words by Mikael Åkerfeldt
Music by Mikael Åkerfeldt & Peter Lindgren
Gtr I (E A D G B E) - 'Left'
Gtr II (E A D G B E) - 'Right'
Gtr III (E A D G B E) - 'Dumb Left Quiet Thing'
Gtr IV (E A D G B E) - 'Solo'
Gtr V (E A D G B E) - 'Distortion (Left)'
Gtr VI (E A D G B E) - 'Distortion (Right)'
Intro
Q=145
[Emadd2]  
[4/4] Gtr I
[E] [E] [E] [E] [E] [E] [E] [E] [E] [E] [E] [E] [E] [E] [E] [E] [E] [E] [E] [E] [E] [E] [E] [E] [E] [E] [E] [E] [E] [E] [E] [E]  
 
 ||------------------|-----------------|-----------------|-------------------||
 ||o-----------------|-----------------|-----------------|------------------o||
 ||----------0-------|---------0-------|---------0-------|---------0---------||
 ||------4-----4---4-|-----4-----4---4-|-----4-----4---4-|-----4-----4---4---||
 ||o---2---2-----2---|---2---2-----2---|---2---2-----2---|---2---2-----2----o||
 ||--0---------------|-0---------------|-0---------------|-0-----------------||

[Emadd2]Gtr I
[E] [E] [E] [E] [E] [E] [E] [E] [E] [E] [E] [E] [E] [E] [E] [E]  
 
 ||------------------|--------------------|
 ||o-----------------|--------------------|
 ||----------0-------|------------0-------|
 ||------4-----4---4-|--------4-----4---4-|
 ||o---2---2-----2---|------2---2-----2---|
 ||--0---------------|--0-----------------|

|
| Gtr II
| W +H.. E
 
 ||------------------|--------------------|
 ||o-----------------|--------------------|
 ||------------------|--------------------|
 ||--5---------------|-(5)--------------7-|
 ||o-----------------|--------------------|
 ||------------------|--------------------|

[D6add4]  
[E] [E] [E] [E] [E] [E] [E] [E] [E] [E] [E] [E] [E] [E] [E] [E]  
 
 |------------------|--------------------|
 |----------0-------|-----------0--------|
 |------0-----0---0-|-------0-----0---0--|
 |----4---4-----4---|-----4---4-----4----|
 |-/5---------------|--5-----------------|
 |------------------|--------------------|

|
| W +W
 
 |------------------|--------------------|
 |------------------|--------------------|
 |------------------|--------------------|
 |--4---------------|-(4)----------------|
 |------------------|--------------------|
 |------------------|--------------------|

[D]E E E E E E Q +H. E E [Bm]E E E E E E Q +W 4x
 
 |-3p0------------|--------------|---------------2--|-(2)-----||
 |---------5s8-7--|-(7)----------|----------0-------|--------o||
 |-------4--------|--------------|-----0------------|---------||
 |-----5----------|----------4s2-|---4---4-----4----|---------||
 |----------------|--------------|-2----------------|--------o||
 |----------------|--------------|------------------|---------||

|
| E E E E E E Q +H. E E H +E E Q +W 4x
 
 |-3-0------------|--------------|------------------|---------||
 |-----0----------|--------------|------------------|--------o||
 |-------0--------|--------------|------------------|---------||
 |---------4-2-0--|-(0)----------|-------------2S4--|-(4)-----||
 |----------------|----------0-1-|-2-------(2)------|--------o||
 |----------------|--------------|------------------|---------||

[D]H E E [A]Q +H.. E [G]E E E E E E [F#]Q +W
 
 |----------------|-------------------x-|-3p2-(0)-2--------|-----------------|
 |-3-------3s5-2--|-(2)-----------------|-----------5s7-7--|-(7)-------------|
 |----------------|---------------------|------------------|-----------------|
 |----------------|---------------------|------------------|-----------------|
 |----------------|---------------------|------------------|-----------------|
 |----------------|---------------------|------------------|-----------------|

|
| H E E Q +H.. E E E E E E E Q +W
 
 |----------------|-------------------x-|-3p2--0--2--------|-----------------|
 |-3-------3------|---------------------|-----------5s7-7--|-(7)-------------|
 |-----------4-2--|-(2)-----------------|------------------|-----------------|
 |----------------|---------------------|------------------|-----------------|
 |----------------|---------------------|------------------|-----------------|
 |----------------|---------------------|------------------|-----------------|

|
| Gtr III
| E E E E E E Q +Q Q +Q +E E Q. q E Q +E Q. Q Q
 
 |----------------|-------------------x-|------------------|-----------------|
 |---------3------|---------------------|-7-------7-----5--|-(5)-2----5------|
 |-----4-----4-2--|-(2)---2--(2)--(2)---|-7----------------|-----------------|
 |---4---4--------|---------------------|------------------|-------------4---|
 |-2-----------0--|-(0)-----------------|------------------|-----------------|
 |----------------|---------------------|------------------|-----------------|

[D]H E E [A]Q +H.. E [G]E E E E E E [F#]Q +W
 
 |----------------|----------------x-|-3p2-(0)-3--------|-----------------|
 |-3-------3s5-2--|-(2)--------------|-----------5s7-7--|-(7)-------------|
 |----------------|------------------|------------------|-----------------|
 |----------------|------------------|------------------|-----------------|
 |----------------|------------------|------------------|-----------------|
 |----------------|------------------|------------------|-----------------|

|
| H E E Q +H.. E E E E E E E Q +W
 
 |----------------|----------------x-|-3p2--0-----------|-----------------|
 |-3-------3------|------------------|---------3-5s7-7--|-(7)-------------|
 |-----------4-2--|-(2)--------------|------------------|-----------------|
 |----------------|------------------|------------------|-----------------|
 |----------------|------------------|------------------|-----------------|
 |----------------|------------------|------------------|-----------------|

|
| E E E E E E Q +Q Q +H Q. q E Q +E Q. Q Q
 
 |----------------|------------------|------------------|-----------------|
 |---------3------|------------------|-7-------8-----5--|-(5)-2----5--2---|
 |-----4-----4-2--|-(2)---2--(2)-----|-7----------------|-----------------|
 |---4---4--------|------------------|------------------|-----------------|
 |-2-----------0--|-(0)--------------|------------------|-----------------|
 |----------------|------------------|------------------|-----------------|

[D]H E E [A]Q +H.. E [G]E E E E E E [F#]Q +W
 
 |-----------------|---------------x-|-3p2-(0)-2--------|-----------------|
 |-3-------3s=5-2--|-(2)-------------|-----------5s7-7--|-(7)-------------|
 |-----------------|-----------------|------------------|-----------------|
 |-----------------|-----------------|------------------|-----------------|
 |-----------------|-----------------|------------------|-----------------|
 |-----------------|-----------------|------------------|-----------------|

|
| H E E Q +H.. E E E E E E E Q +W
 
 |-----------------|---------------x-|-3p2--0-----------|-----------------|
 |-3-------3-------|-----------------|---------3-5s7-7--|-(7)-------------|
 |------------4-2--|-(2)-------------|------------------|-----------------|
 |-----------------|-----------------|------------------|-----------------|
 |-----------------|-----------------|------------------|-----------------|
 |-----------------|-----------------|------------------|-----------------|

|
| E E Q +Q Q +E. S H. Q. q E Q +E Q. Q Q
 
 |-----------------|-----------------|------------------|-----------------|
 |--------------2--|-(2)-------------|-7-------7-----5--|-(5)-2----5--2---|
 |-----4--(4)------|------4p2--------|-7----------------|-----------------|
 |---4-------------|-----------------|------------------|-----------------|
 |-2------------0--|-(0)-------------|------------------|-----------------|
 |-----------------|-----------------|------------------|-----------------|

[D]H E E [A]Q +H.. E [G]E E E E E E [F#]Q +W
 
 |----------------|----------------x-|-3p2-(0)-3--------|-----------------|
 |-3-------3s5-2--|-(2)--------------|-----------5s7-7--|-(7)-------------|
 |----------------|------------------|------------------|-----------------|
 |----------------|------------------|------------------|-----------------|
 |----------------|------------------|------------------|-----------------|
 |----------------|------------------|------------------|-----------------|

|
| H E E Q +H.. E E E E E E E Q +W
 
 |----------------|----------------x-|-3p2--0-----------|-----------------|
 |-3-------3------|------------------|---------3-5s7-7--|-(7)-------------|
 |-----------4-2--|-(2)--------------|------------------|-----------------|
 |----------------|------------------|------------------|-----------------|
 |----------------|------------------|------------------|-----------------|
 |----------------|------------------|------------------|-----------------|

|
| E E E E E E Q +Q Q +H Q. q E Q +E Q. Q Q
 
 |----------------|------------------|------------------|-----------------|
 |---------3------|------------------|-7-------8-----5--|-(5)-2----5--2---|
 |-----4-----4-2--|-(2)---2--(2)-----|-7----------------|-----------------|
 |---4---4--------|------------------|------------------|-----------------|
 |-2-----------0--|-(0)--------------|------------------|-----------------|
 |----------------|------------------|------------------|-----------------|

[D]Q. E q [C#m]Q +Q E E Q. E [G]E E E E E E [A]Q +W
 
 |--------------|-------------------|----------------|--------|
 |-3------3--2--|-(2)---------------|----------------|--------|
 |------4-------|-------2s4s2-------|----------------|--------|
 |--------------|-------------------|---0-2-4-5-4----|--------|
 |--------------|-------------------|-------------0--|-(0)----|
 |--------------|-----------------2-|-3--------------|--------|

|
| Q. E q Q +Q E E Q. E E E E E E E Q +W
 
 |-2----0-------|-------------------|----------------|--------|
 |--------3--2--|-(2)---2s3s2-------|----------------|--------|
 |--------------|-------------------|-4---4-2--------|--------|
 |--------------|----------------/5-|---5-----5p4-2--|-(2)----|
 |--------------|-------------------|----------------|--------|
 |--------------|-------------------|----------------|--------|

|
| Q. E Q Q +H.. E Q Q Q Q +W
 
 |-2----0----0--|-(0)---------------|----------------|--------|
 |--------3-----|-------------------|----------------|--------|
 |--------------|-------------------|----------------|--------|
 |--------------|-----------------0-|-2---4---5---2--|-(2)----|
 |--------------|-------------------|----------------|--------|
 |--------------|-------------------|----------------|--------|

[D]Q. E q [C#m]Q +Q E E Q. E [G]E E E E E E [A]Q +W
 
 |--------------|-------------------|----------------|------------|
 |-3------3--2--|-(2)---------------|----------------|------------|
 |------4-------|-------2s4s2-------|----------------|------------|
 |--------------|-------------------|---0-2-4-5-4----|------------|
 |--------------|-------------------|-------------0--|-(0)--------|
 |--------------|-----------------2-|-3--------------|------------|

|
| Q. E q Q +Q E E Q. E E E E E E E Q +W
 
 |-2----0-------|-------------------|----------------|------------|
 |--------3--2--|-(2)---2s3-5-------|----------------|------------|
 |--------------|-------------------|-4---4-2--------|------------|
 |--------------|----------------/5-|---5-----5p4-2--|-(2)--------|
 |--------------|-------------------|----------------|------------|
 |--------------|-------------------|----------------|------------|

|
| Q. E Q Q +H.. E Q Q Q Q +Q H.
 
 |-2----0----0--|-(0)---------------|----------------|------------|
 |--------3-----|-------------------|----------------|------------|
 |--------------|-------------------|----------------|------2-----|
 |--------------|-----------------0-|-2---4---5---2--|-(2)--------|
 |--------------|-------------------|----------------|------------|
 |--------------|-------------------|----------------|------------|

[D]Q. E q [C#m]Q +Q E E Q. E [G]E E E E E E [A]Q +W
 
 |--------------|-------------------|----------------|------------|
 |-3------3--2--|-(2)---------------|----------------|------------|
 |------4-------|-------2s4s2-------|----------------|------------|
 |--------------|-------------------|---0-2-4-5-4----|------------|
 |--------------|-------------------|-------------0--|-(0)--------|
 |--------------|-----------------2-|-3--------------|------------|

|
| Q. E q Q +Q E E Q. E E E E E E E Q +W
 
 |-2----0-------|-------------------|----------------|------------|
 |--------3--2--|-(2)---2s3s2-------|----------------|------------|
 |--------------|-------------------|-4---4-2--------|------------|
 |--------------|----------------/5-|---5-----5p4-2--|-(2)--------|
 |--------------|-------------------|----------------|------------|
 |--------------|-------------------|----------------|------------|

|
| Q. E Q Q +H.. E Q Q Q Q +Q H.
 
 |-2----0----0--|-(0)---------------|----------------|------------|
 |--------3-----|-------------------|----------------|------------|
 |--------------|-------------------|----------------|------2-----|
 |--------------|-----------------0-|-2---4---5---2--|-(2)--------|
 |--------------|-------------------|----------------|------------|
 |--------------|-------------------|----------------|------------|

[D]Q. E q [C#m]Q +Q E E Q. E [G]E E E E E E [A]Q +W
 
 |--------------|-------------------|----------------|------------|
 |-3------3--2--|-(2)---------------|----------------|------------|
 |------4-------|-------2s4s2-------|----------------|------------|
 |--------------|-------------------|---0-2-4-5-4----|------------|
 |--------------|-------------------|-------------0--|-(0)--------|
 |--------------|-----------------2-|-3--------------|------------|

|
| Q. E q Q +Q E E Q. E E E E E E E Q +W
 
 |-2----0-------|-------------------|----------------|------------|
 |--------3--2--|-(2)---2s3-5-------|----------------|------------|
 |--------------|-------------------|-4---4-2--------|------------|
 |--------------|----------------/5-|---5-----5p4-2--|-(2)--------|
 |--------------|-------------------|----------------|------------|
 |--------------|-------------------|----------------|------------|

|
| Q. E Q Q +H.. E Q Q Q Q +Q H.
 
 |-2----0----0--|-(0)---------------|----------------|------------|
 |--------3-----|-------------------|----------------|------------|
 |--------------|-------------------|----------------|------2-----|
 |--------------|-----------------0-|-2---4---5---2--|-(2)--------|
 |--------------|-------------------|----------------|------------|
 |--------------|-------------------|----------------|------------|

[D]H E E [A]Q +H.. E [G]E E E E E E [F#]Q +W
 
 ||-----------------|-------------------x-|-3p2-(0)-2--------|----------------|
 ||o-3-------3s5-2--|-(2)-----------------|-----------5s7-7--|-(7)------------|
 ||-----------------|---------------------|------------------|----------------|
 ||-----------------|---------------------|------------------|----------------|
 ||o----------------|---------------------|------------------|----------------|
 ||-----------------|---------------------|------------------|----------------|

|
| H E E Q +H.. E E E E E E E Q +W
 
 ||-----------------|-------------------x-|-3p2--0-----------|----------------|
 ||o-3-------3------|---------------------|---------3-5s7-7--|-(7)------------|
 ||------------4-2--|-(2)-----------------|------------------|----------------|
 ||-----------------|---------------------|------------------|----------------|
 ||o----------------|---------------------|------------------|----------------|
 ||-----------------|---------------------|------------------|----------------|

|
| E E E E E E Q +Q Q +Q +E E Q. q E Q +E Q. Q Q
 
 ||-----------------|-------------------x-|------------------|----------------|
 ||o---------3------|---------------------|-7-------7-----5--|-(5)-2----5--2--|
 ||------4-----4-2--|-(2)---2--(2)--(2)---|-7----------------|----------------|
 ||----4---4--------|---------------------|------------------|----------------|
 ||o-2-----------0--|-(0)-----------------|------------------|----------------|
 ||-----------------|---------------------|------------------|----------------|

[D]H E E [A]Q +H.. E [G]E E E E E E [F#]Q +W
 
 |----------------|-------------------x-|-3p2-(0)-3--------|------------------||
 |-3-------3s5-2--|-(2)-----------------|-----------5s7-7--|-(7)-------------o||
 |----------------|---------------------|------------------|------------------||
 |----------------|---------------------|------------------|------------------||
 |----------------|---------------------|------------------|-----------------o||
 |----------------|---------------------|------------------|------------------||

|
| H E E Q +H.. E E E E E E E Q +W
 
 |----------------|-------------------x-|-3p2--0-----------|------------------||
 |-3-------3------|---------------------|---------3-5s7-7--|-(7)-------------o||
 |-----------4-2--|-(2)-----------------|------------------|------------------||
 |----------------|---------------------|------------------|------------------||
 |----------------|---------------------|------------------|-----------------o||
 |----------------|---------------------|------------------|------------------||

|
| E E E E E E Q +Q Q +Q +E E Q. q E Q +E Q. Q Q
 
 |----------------|-------------------x-|------------------|------------------||
 |---------3------|---------------------|-7-------8-----5--|-(5)-2----5--2---o||
 |-----4-----4-2--|-(2)---2--(2)--(2)---|-7----------------|------------------||
 |---4---4--------|---------------------|------------------|------------------||
 |-2-----------0--|-(0)-----------------|------------------|-----------------o||
 |----------------|---------------------|------------------|------------------||

Q [D]q Q [C#m]Q +Q E E Q. E [G]E E E E E E [A]Q +W
 
 |-------------|-------------------|----------------|------------|
 |----3-----5--|-(5)---------------|----------------|------------|
 |-------------|-------2s4s2-------|----------------|------------|
 |-------------|-------------------|---0-2-4-5-4----|------------|
 |-------------|-------------------|-------------0--|-(0)--------|
 |-------------|-----------------2-|-3--------------|------------|

|
| Q Q Q Q +Q E E Q. E E E E E E E Q +W
 
 |-------------|-------------------|----------------|------------|
 |----3-----2--|-(2)---2s3-5-------|----------------|------------|
 |-------------|-------------------|-4---4-2--------|------------|
 |-------------|----------------/5-|---5-----5p4-2--|-(2)--------|
 |-------------|-------------------|----------------|------------|
 |-------------|-------------------|----------------|------------|

|
| Q q Q Q +H.. E Q Q Q Q +Q H.
 
 |-------------|-------------------|----------------|------------|
 |-------------|-------------------|----------------|------------|
 |----7-----6--|-(6)---------------|----------------|------2-----|
 |-------------|-----------------0-|-2---4---5---2--|-(2)--------|
 |-------------|-------------------|----------------|------------|
 |-------------|-------------------|----------------|------------|

[D]Q. E q [C#m]Q +Q E E Q. E [G]E E E E E E [A]Q +W
 
 |--------------|-------------------|----------------|------------|
 |-3------3--2--|-(2)---------------|----------------|------------|
 |------4-------|-------2s4s2-------|----------------|------------|
 |--------------|-------------------|---0-2-4-5-4----|------------|
 |--------------|-------------------|-------------0--|-(0)--------|
 |--------------|-----------------2-|-3--------------|------------|

|
| Q. E q Q +Q E E Q. E E E E E E E Q +W
 
 |-2----0-------|-------------------|----------------|------------|
 |--------3--2--|-(2)---2h3-5-------|----------------|------------|
 |--------------|-------------------|-4---4-2--------|------------|
 |--------------|----------------/5-|---5-----5p4-2--|-(2)--------|
 |--------------|-------------------|----------------|------------|
 |--------------|-------------------|----------------|------------|

|
| Q. E Q Q +H.. E Q Q Q Q +Q H.
 
 |-2----0----0--|-(0)---------------|----------------|------------|
 |--------3-----|-------------------|----------------|------------|
 |--------------|-------------------|----------------|------2-----|
 |--------------|-----------------0-|-2---4---5---2--|-(2)--------|
 |--------------|-------------------|----------------|------------|
 |--------------|-------------------|----------------|------------|

[D]Q. E q [C#m]Q +Q E E Q. E [G]E E E E E E [A]Q +W
 
 |--------------|-------------------|----------------|------------|
 |-3------3--2--|-(2)---------------|----------------|------------|
 |------4-------|-------2s4s2-------|----------------|------------|
 |--------------|-------------------|---0-2-4-5-4----|------------|
 |--------------|-------------------|-------------0--|-(0)--------|
 |--------------|-----------------2-|-3--------------|------------|

|
| Q. E q Q +Q E E Q. E E E E E E E Q +W
 
 |-2----0-------|-------------------|----------------|------------|
 |--------3--2--|-(2)---2s3s2-------|----------------|------------|
 |--------------|-------------------|-4---4-2--------|------------|
 |--------------|----------------/5-|---5-----5p4-2--|-(2)--------|
 |--------------|-------------------|----------------|------------|
 |--------------|-------------------|----------------|------------|

|
| Q. E Q Q +H.. E Q Q Q Q +Q H.
 
 |-2----0----0--|-(0)---------------|----------------|------------|
 |--------3-----|-------------------|----------------|------------|
 |--------------|-------------------|----------------|------2-----|
 |--------------|-----------------0-|-2---4---5---2--|-(2)--------|
 |--------------|-------------------|----------------|------------|
 |--------------|-------------------|----------------|------------|

[D]Q. E q [C#m]Q +Q E E Q. E [G]E E E E E E [A]Q +W
 
 |--------------|-------------------|----------------|------------|
 |-3------3--2--|-(2)---------------|----------------|------------|
 |------4-------|-------2s4s2-------|----------------|------------|
 |--------------|-------------------|---0-2-4-5-4----|------------|
 |--------------|-------------------|-------------0--|-(0)--------|
 |--------------|-----------------2-|-3--------------|------------|

|
| Q. E q Q +Q E E Q. E E E E E E E Q +W
 
 |-2----0-------|-------------------|----------------|------------|
 |--------3--2--|-(2)---2s3-5-------|----------------|------------|
 |--------------|-------------------|-4---4-2--------|------------|
 |--------------|----------------/5-|---5-----5p4-2--|-(2)--------|
 |--------------|-------------------|----------------|------------|
 |--------------|-------------------|----------------|------------|

|
| Q. E Q Q +H.. E Q Q Q Q +Q H.
 
 |-2----0----0--|-(0)---------------|----------------|------------|
 |--------3-----|-------------------|----------------|------------|
 |--------------|-------------------|----------------|------2-----|
 |--------------|-----------------0-|-2---4---5---2--|-(2)--------|
 |--------------|-------------------|----------------|------------|
 |--------------|-------------------|----------------|------------|

[Dm]H H +W +W +W 3x
 
 ||-------1----------|-(1)-----------------|-(1)----------|-(1)-----||
 ||o------3----------|-(3)-----------------|-(3)----------|-(3)----o||
 ||--2----2----------|-(2)-----------------|-(2)----------|-(2)-----||
 ||--0---------------|---------------------|--------------|---------||
 ||o-----------------|---------------------|--------------|--------o||
 ||------------------|---------------------|--------------|---------||

|
| H E E E E E. +S E q q E q H. +W 3x
 
 ||------------------|---------------------|--------------|---------||
 ||o--------10-10-10-|-10--(10)\-8-8--6--5-|--5---5-------|-(5)----o||
 ||---------10-10-10-|-10--(10)\-9-9--7--5-|--5---5-------|-(5)-----||
 ||------------------|---------------------|--------------|---------||
 ||o-----------------|---------------------|--------------|--------o||
 ||------------------|---------------------|--------------|---------||

H H +W +W +H.. E
 
 |------1----------|-(1)-----------------|-(1)----------|-(1)----------|
 |------3----------|-(3)-----------------|-(3)----------|-(3)----------|
 |-2----2----------|-(2)-----------------|-(2)----------|-(2)----------|
 |-0---------------|---------------------|--------------|--------------|
 |-----------------|---------------------|--------------|------------0-|
 |-----------------|---------------------|--------------|--------------|

|
| H E E E E E. +S E q q E q H. +W
 
 |-----------------|---------------------|--------------|--------------|
 |--------10-10-10-|-10--(10)\-8-8--6--5-|--5---5-------|-(5)----------|
 |--------10-10-10-|-10--(10)\-9-9--7--5-|--5---5-------|-(5)----------|
 |-----------------|---------------------|--------------|--------------|
 |-----------------|---------------------|--------------|--------------|
 |-----------------|---------------------|--------------|--------------|

[Bbsus2]Gtrs I, II[Gm]
E E H. +W E E H. +W
 
 |----------------|------------|----------------|--------|
 |--------1-------|-(1)--------|----------------|--------|
 |--------3-------|-(3)--------|--------3-------|-(3)----|
 |----3---3-------|-(3)--------|--------5-------|-(5)----|
 |-1-(1)-(1)------|-(1)--------|----5---5-------|-(5)----|
 |----------------|------------|-3-(3)-(3)------|-(3)----|

[Dm]E E H. +W E E H. +W
 
 |----------------|------------|----------------|--------|
 |--------6-------|-(6)--------|--------6-------|-(6)----|
 |--------7-------|-(7)--------|--------7-------|-(7)----|
 |----7--(7)------|-(7)--------|----7--(7)------|-(7)----|
 |-5-(5)-(5)------|-(5)--------|-5-(5)-(5)------|-(5)----|
 |----------------|------------|----------------|--------|

Verse 1
[Dm]E E H. +W E E H. +H.. E
 
 ||-----------------|------------|----------------|---------------|
 ||o--------6-------|-(6)--------|--------6-------|-(6)-----------|
 ||---------7-------|-(7)--------|--------7-------|-(7)-----------|
 ||-----7--(7)------|-(7)--------|----7--(7)------|-(7)-----------|
 ||o-5-(5)-(5)------|-(5)--------|-5-(5)-(5)------|-(5)--------0--|
 ||-----------------|------------|----------------|---------------|

[Bbsus2]E E H. +W [Gm]E E H. +W
 
 |----------------|------------|----------------|--------|
 |--------1-------|-(1)--------|----------------|--------|
 |--------3-------|-(3)--------|--------3-------|-(3)----|
 |----3---3-------|-(3)--------|--------5-------|-(5)----|
 |-1-(1)-(1)------|-(1)--------|----5---5-------|-(5)----|
 |----------------|------------|-3-(3)-(3)------|-(3)----|

[Dm]Gtr IV
W W W
 
 |----------------|------------|----------------|
 |----------------|------------|----------------|
 |----------------|------------|----------------|
 |----------------|------------|----------------|
 |----------------|------------|----------------|
 |----------------|------------|----------------|

|
| Gtrs I, II
| E E H. +W E E H.
 
 |----------------|------------|----------------|
 |--------6-------|-(6)--------|--------6-------|
 |--------7-------|-(7)--------|--------7-------|
 |----7--(7)------|-(7)--------|----7--(7)------|
 |-5-(5)-(5)------|-(5)--------|-5-(5)-(5)------|
 |----------------|------------|----------------|

1. 2.
W H E E E E
 
 |-------------||-----------------|
 |------------o||---------------5-|
 |-------------||-------------7---|
 |-------------||----------/7-----|
 |------------o||-----------------|
 |-------------||-----------------|

|
| +W +W
 
 |-------------||-----------------|
 |-(6)--------o||-(6)-------------|
 |-(7)---------||-(7)-------------|
 |-(7)---------||-(7)-------------|
 |-(5)--------o||-(5)-------------|
 |-------------||-----------------|

Guitar Solo
[Dm]E +E +Q +E +S. T E. S +E Q. +Q E E
 
 |------------------------------|-------------------|
 |-5-(5)pb6r(5)--(5)-(5)-3h5----|-------------------|
 |----------------------------5-|-(5)-2----(2)--2s5-|
 |------------------------------|-------------------|
 |------------------------------|-------------------|
 |------------------------------|-------------------|

|
| E E H. +W
 
 |------------------------------|-------------------|
 |-----------6------------------|-(6)---------------|
 |-----------7------------------|-(7)---------------|
 |----7-----(7)-----------------|-(7)---------------|
 |-5-(5)----(5)-----------------|-(5)---------------|
 |------------------------------|-------------------|
 |---3---| |-3-|

E E E +H. +H T T T T +e q E
 
 |--------------------|---------------5-(5)-8---5---|
 |-5h8p====5-(5)------|-(5)---------6---------------|
 |--------------------|-----------7-----------------|
 |--------------------|---------7-------------------|
 |--------------------|-----------------------------|
 |--------------------|-----------------------------|

|
| E E H. +H.. E
 
 |--------------------|-----------------------------|
 |------------6-------|-(6)-------------------------|
 |------------7-------|-(7)-------------------------|
 |------7----(7)------|-(7)-------------------------|
 |-5---(5)---(5)------|-(5)-------------------0-----|
 |--------------------|-----------------------------|

|-3--|
S e. S e. +H +H +Q Q Q
 
 |---------------------------|-------------------|
 |-8s10-------8s=10--(10)----|-(10)----(10)-8-6--|
 |---------------------------|-------------------|
 |-5s=7-------5s==7---(7)----|--(7)-----(7)-5-3--|
 |---------------------------|-------------------|
 |---------------------------|-------------------|

|
| E E H. +W
 
 |---------------------------|-------------------|
 |------------6--------------|--(6)--------------|
 |------------7--------------|--(7)--------------|
 |--------7--(7)-------------|--(7)--------------|
 |-5-----(5)-(5)-------------|--(5)--------------|
 |---------------------------|-------------------|

E E H. +Q E E E q E
 
 |----------------|-----------------|
 |-5s=6s==5-------|-(5)------6----6-|
 |----------------|------5h7---7----|
 |-2s=3s==2-------|-(2)-------------|
 |----------------|-----------------|
 |----------------|-----------------|

|
| E E H. +W
 
 |----------------|-----------------|
 |--------6-------|-(6)-------------|
 |--------7-------|-(7)-------------|
 |----7--(7)------|-(7)-------------|
 |-5-(5)-(5)------|-(5)-------------|
 |----------------|-----------------|

[Bbsus2]Q H. +Q. E +E E E E
 
 |-------------------|--------------------------10------|
 |-8------8b10=======|=(8)r----------------10--(10)--13-|
 |-------------------|--------12b14==(12)-(12)-(12)r----|
 |-------------------|----------------------------------|
 |-------------------|----------------------------------|
 |-------------------|----------------------------------|

|
| E E H. +W
 
 |-------------------|----------------------------------|
 |--------1----------|-(1)------------------------------|
 |--------3----------|-(3)------------------------------|
 |----3---3----------|-(3)------------------------------|
 |-1-(1)-(1)---------|-(1)------------------------------|
 |-------------------|----------------------------------|

[Gm] +Q E E E Q. +H. +E S S
 
 |---------------10------10--------|-----------------13p10-|
 |-(13)b15======(13)-13-(13)-13----|-(13)------(13)r-------|
 |---------------------------------|-----------------------|
 |---------------------------------|-----------------------|
 |---------------------------------|-----------------------|
 |---------------------------------|-----------------------|

|
| E E H. +W
 
 |---------------------------------|-----------------------|
 |---------------------------------|-----------------------|
 |----------------3----------------|--(3)------------------|
 |----------------5----------------|--(5)------------------|
 |-----------5----5----------------|--(5)------------------|
 |---3------(3)--(3)---------------|--(3)------------------|

[Dm] Q. E E E E E H.. E
 
 |-------------------13---15-|---------------|
 |-10----------13-15---------|-13---------10-|
 |---------------------------|---------------|
 |---------------------------|---------------|
 |---------------------------|---------------|
 |---------------------------|---------------|

|
| E E H. +W
 
 |---------------------------|---------------|
 |----------6----------------|-(6)-----------|
 |----------7----------------|-(7)-----------|
 |------7--(7)---------------|-(7)-----------|
 |--5--(5)-(5)---------------|-(5)-----------|
 |---------------------------|---------------|

E Q E +H +Q. E +Q Q
 
 |-----------------------|---------------------------|
 |-13p10-----------------|----------------------13---|
 |------------12-(12)----|-(12)---12-(12)b14===(12)--|
 |-----------------------|---------------------------|
 |-----------------------|---------------------------|
 |-----------------------|---------------------------|

|
| E E H. +W
 
 |-----------------------|---------------------------|
 |---------6-------------|--(6)----------------------|
 |---------7-------------|--(7)----------------------|
 |-----7--(7)------------|--(7)----------------------|
 |--5-(5)-(5)------------|--(5)----------------------|
 |-----------------------|---------------------------|

Verse 2
E +Q. H W W W
 
 |-------------------|------------|----------------|--------|
 |-------------------|------------|----------------|--------|
 |-12r(12)-----------|------------|----------------|--------|
 |-------------------|------------|----------------|--------|
 |-------------------|------------|----------------|--------|
 |-------------------|------------|----------------|--------|

|
| E E H. +W E E H. +W
 
 |-------------------|------------|----------------|--------|
 |----------6--------|-(6)--------|--------6-------|-(6)----|
 |----------7--------|-(7)--------|--------7-------|-(7)----|
 |------7--(7)-------|-(7)--------|----7--(7)------|-(7)----|
 |--5--(5)-(5)-------|-(5)--------|-5-(5)-(5)------|-(5)----|
 |-------------------|------------|----------------|--------|

[Bbsus2]Gtrs I, II[Gm]
E E H. +W E E H. +W
 
 |----------------|------------|----------------|--------|
 |--------1-------|-(1)--------|----------------|--------|
 |--------3-------|-(3)--------|--------3-------|-(3)----|
 |----3---3-------|-(3)--------|--------5-------|-(5)----|
 |-1-(1)-(1)------|-(1)--------|----5---5-------|-(5)----|
 |----------------|------------|-3-(3)-(3)------|-(3)----|

[Dm]E E H. +W E E H. +H.. E
 
 |----------------|------------|----------------|--------------|
 |--------6-------|-(6)--------|--------6-------|-(6)----------|
 |--------7-------|-(7)--------|--------7-------|-(7)----------|
 |----7--(7)------|-(7)--------|----7--(7)------|-(7)----------|
 |-5-(5)-(5)------|-(5)--------|-5-(5)-(5)------|-(5)--------0-|
 |----------------|------------|----------------|--------------|

[Bbsus2]E E H. +W [Gm]E E H. +W
 
 |----------------|------------|----------------|--------|
 |--------1-------|-(1)--------|----------------|--------|
 |--------3-------|-(3)--------|--------3-------|-(3)----|
 |----3---3-------|-(3)--------|--------5-------|-(5)----|
 |-1-(1)-(1)------|-(1)--------|----5---5-------|-(5)----|
 |----------------|------------|-3-(3)-(3)------|-(3)----|

Best Bridge Ever
[Dm]Gtr I
H H +W +W +W 4x
 
 ||-------1----------|-(1)-----------------|-(1)----------|-(1)-----||
 ||o------3----------|-(3)-----------------|-(3)----------|-(3)----o||
 ||--2----2----------|-(2)-----------------|-(2)----------|-(2)-----||
 ||--0---------------|---------------------|--------------|---------||
 ||o-----------------|---------------------|--------------|--------o||
 ||------------------|---------------------|--------------|---------||

|
| Gtr II
| H E E E E E. +S E q q E q H. +W 4x
 
 ||------------------|---------------------|--------------|---------||
 ||o--------10-10-10-|-10--(10)\-8-8--6--5-|--5---5-------|-(5)----o||
 ||---------10-10-10-|-10--(10)\-9-9--7--5-|--5---5-------|-(5)-----||
 ||------------------|---------------------|--------------|---------||
 ||o-----------------|---------------------|--------------|--------o||
 ||------------------|---------------------|--------------|---------||

[Em] W +W +W +W
 
 |-----------|------------|------------|--------|
 |--8--------|-(8)--------|-(8)--------|-(8)----|
 |--9--------|-(9)--------|-(9)--------|-(9)----|
 |--9--------|-(9)--------|-(9)--------|-(9)----|
 |--7--------|-(7)--------|-(7)--------|-(7)----|
 |-----------|------------|------------|--------|

|
| W +W +W +W
 
 |-----------|------------|------------|--------|
 |-!8--------|-(8)--------|-(8)--------|-(8)----|
 |-!9--------|-(9)--------|-(9)--------|-(9)----|
 |-!9--------|-(9)--------|-(9)--------|-(9)----|
 |-!7--------|-(7)--------|-(7)--------|-(7)----|
 |-----------|------------|------------|--------|

Gtr IV[Em]
<
Wx11 H. Q
 
 |-------------|------------|
 |-------------|---------8--|
 |-------------|---------9--|
 |-------------|---------9--|
 |-------------|---------7--|
 |-------------|------------|

> [Em]<
+W +H H W H.. E
 
 |------------|-------------|----------|-------------|
 |-(8)--------|-(8)---------|----------|-----------8-|
 |-(9)--------|-(9)---------|----------|-----------9-|
 |-(9)--------|-(9)---------|----------|-----------9-|
 |-(7)--------|-(7)---------|----------|-----------7-|
 |------------|-------------|----------|-------------|

>
+W +H H W W
 
 |------------|-------------|----------|------|
 |-(8)--------|-(8)---------|----------|------|
 |-(9)--------|-(9)---------|----------|------|
 |-(9)--------|-(9)---------|----------|------|
 |-(7)--------|-(7)---------|----------|------|
 |------------|-------------|----------|------|

[Emadd2]Q Q Q Q +W +W +W
 
 |-------------|------------|------------|--------|
 |-------------|------------|------------|--------|
 |----------0--|-(0)--------|-(0)--------|-(0)----|
 |-------4-----|------------|------------|--------|
 |----2--------|------------|------------|--------|
 |-0-----------|------------|------------|--------|

[Em]W +W +W +W
 
 |----------|------------|------------|--------|
 |-8--------|-(8)--------|-(8)--------|-(8)----|
 |-9--------|-(9)--------|-(9)--------|-(9)----|
 |-9--------|-(9)--------|-(9)--------|-(9)----|
 |-7--------|-(7)--------|-(7)--------|-(7)----|
 |----------|------------|------------|--------|

[Em]W +W +W +W
 
 |----------|------------|------------|--------|
 |-8--------|-(8)--------|-(8)--------|-(8)----|
 |-9--------|-(9)--------|-(9)--------|-(9)----|
 |-9--------|-(9)--------|-(9)--------|-(9)----|
 |-7--------|-(7)--------|-(7)--------|-(7)----|
 |----------|------------|------------|--------|

[Em]Gtr IV
W +W +H E E Q +W
 
 |----------|------------|--------7------|--------|
 |-8--------|-(8)--------|-(8)------8----|--------|
 |-9--------|-(9)--------|-(9)--------9--|-(9)----|
 |-9--------|-(9)--------|-(9)-----------|--------|
 |-7--------|-(7)--------|-(7)-----------|--------|
 |----------|------------|---------------|--------|

[Em]W +W +W +W
 
 |----------|------------|------------|--------|
 |-8--------|-(8)--------|-(8)--------|-(8)----|
 |-9--------|-(9)--------|-(9)--------|-(9)----|
 |-9--------|-(9)--------|-(9)--------|-(9)----|
 |-7--------|-(7)--------|-(7)--------|-(7)----|
 |----------|------------|------------|--------|

[Em]W +H Q Q W +W
 
 |----------|--------7-----|--------------|-------------------|
 |-8--------|-(8)-------8--|--------------|-------------------|
 |-9--------|-(9)----------|-9------------|-(9)---------------|
 |-9--------|-(9)----------|--------------|-------------------|
 |-7--------|-(7)----------|--------------|-------------------|
 |----------|--------------|--------------|-------------------|

|
| Gtrs I, II
| W W H E E E E E E E E E E E E
 
 |----------|--------------|--------------|-------------------|
 |----------|--------------|------7-7-7-7-|--7--7-7-7-7-7-7-7-|
 |----------|--------------|------7-7-7-7-|--7--7-7-7-7-7-7-7-|
 |----------|--------------|------7-7-7-7-|--7--7-7-7-7-7-7-7-|
 |----------|--------------|--------------|-------------------|
 |----------|--------------|--------------|-------------------|

[Em]W +W E E E E +E Q E +W
 
 |---------------|------------|--7-----------------|-------------------|
 |-8-------------|-(8)--------|-----8---8-(8)------|-------------------|
 |-9-------------|-(9)--------|-------9-------9----|-------------------|
 |-9-------------|-(9)--------|------------------9-|-(9)---------------|
 |-7-------------|-(7)--------|--------------------|-------------------|
 |---------------|------------|--------------------|-------------------|

|
| <
| E Q E H +W +W E E E E E E E E
 
 |---------------|------------|--------------------|-------------------|
 |-7--8---8-8----|-(8)--------|-(8)----------------|--7--7-7-7-7-7-7-7-|
 |-7h=9---9-9----|-(9)--------|-(9)----------------|--7--7-7-7-7-7-7-7-|
 |-7h=9---9-9----|-(9)--------|-(9)----------------|--7--7-7-7-7-7-7-7-|
 |-7-(7)--7-7----|-(7)--------|-(7)----------------|-------------------|
 |---------------|------------|--------------------|-------------------|

[Em]W +W E E E E +E Q E +W
 
 |---------------|------------|--7-----------------|-------------------|
 |-8-------------|-(8)--------|-----8---8-(8)------|-------------------|
 |-9-------------|-(9)--------|-------9-------9----|-------------------|
 |-9-------------|-(9)--------|------------------9-|-(9)---------------|
 |-7-------------|-(7)--------|--------------------|-------------------|
 |---------------|------------|--------------------|-------------------|

|
| <
| E Q E H +W +W E E E E E E E E
 
 |---------------|------------|--------------------|-------------------|
 |-7--8---8-8----|-(8)--------|-(8)----------------|--7--7-7-7-7-7-7-7-|
 |-7h=9---9-9----|-(9)--------|-(9)----------------|--7--7-7-7-7-7-7-7-|
 |-7h=9---9-9----|-(9)--------|-(9)----------------|--7--7-7-7-7-7-7-7-|
 |-7-(7)--7-7----|-(7)--------|-(7)----------------|-------------------|
 |---------------|------------|--------------------|-------------------|

[Em]W +W E E E E +E Q E +W
 
 |---------------|------------|--7------------------|-------------------|
 |-8-------------|-(8)--------|-----8---8-(8)-------|-------------------|
 |-9-------------|-(9)--------|-------9-------9-----|-------------------|
 |-9-------------|-(9)--------|-------------------9-|-(9)---------------|
 |-7-------------|-(7)--------|---------------------|-------------------|
 |---------------|------------|---------------------|-------------------|

|
| <
| E Q E H +W +H E E E E E E E E E E E E
 
 |---------------|------------|---------------------|-------------------|
 |-7--8---8-8----|-(8)--------|-(8)--------7--7-7-7-|--7--7-7-7-7-7-7-7-|
 |-7h=9---9-9----|-(9)--------|-(9)--------7--7-7-7-|--7--7-7-7-7-7-7-7-|
 |-7h=9---9-9----|-(9)--------|-(9)--------7--7-7-7-|--7--7-7-7-7-7-7-7-|
 |-7-(7)--7-7----|-(7)--------|-(7)-----------------|-------------------|
 |---------------|------------|---------------------|-------------------|

[Em]W +W E E E E +E Q E +W
 
 |---------------|------------|-7-----------------|-------------------|
 |-8-------------|-(8)--------|---8---8-(8)-------|-------------------|
 |-9-------------|-(9)--------|-----9-------9-----|-------------------|
 |-9-------------|-(9)--------|-----------------9-|-(9)---------------|
 |-7-------------|-(7)--------|-------------------|-------------------|
 |---------------|------------|-------------------|-------------------|

|
| < <
| E Q E H +W E E E E E E E E E E E E E E E E
 
 |---------------|------------|-------------------|-------------------|
 |-7--8---8-8----|-(8)--------|-7-7-7-7--7--7-7-7-|--7--7-7-7-7-7-7-7-|
 |-7h=9---9-9----|-(9)--------|-7-7-7-7--7--7-7-7-|--7--7-7-7-7-7-7-7-|
 |-7h=9---9-9----|-(9)--------|-7-7-7-7--7--7-7-7-|--7--7-7-7-7-7-7-7-|
 |-7-(7)--7-7----|-(7)--------|-------------------|-------------------|
 |---------------|------------|-------------------|-------------------|

[Em]W +W E E E E +E Q E +W
 
 |---------------|---------------|--7------------------|-------------------|
 |-8-------------|-(8)-----------|-----8---8-(8)-------|-------------------|
 |-9-------------|-(9)-----------|-------9-------9-----|-------------------|
 |-9-------------|-(9)-----------|-------------------9-|-(9)---------------|
 |-7-------------|-(7)-----------|---------------------|-------------------|
 |---------------|---------------|---------------------|-------------------|

|
| < <
| E Q E H H Q E E +E E E E E E E E E E E E E E E E
 
 |---------------|---------------|---------------------|-------------------|
 |-7--8---8-8----|--------8----8-|-(8)-7-7-7--7--7-7-7-|--7--7-7-7-7-7-7-7-|
 |-7h=9---9-9----|--------9----9-|-(9)-7-7-7--7--7-7-7-|--7--7-7-7-7-7-7-7-|
 |-7h=9---9-9----|--------9--9-9-|-(9)-7-7-7--7--7-7-7-|--7--7-7-7-7-7-7-7-|
 |-7-(7)--7-7----|--------7--7-7-|-(7)-----------------|-------------------|
 |---------------|---------------|---------------------|-------------------|

[Em]W +W +W +W
 
 |---------------|---------------|------------|--------|
 |-8-------------|-(8)-----------|-(8)--------|-(8)----|
 |-9-------------|-(9)-----------|-(9)--------|-(9)----|
 |-9-------------|-(9)-----------|-(9)--------|-(9)----|
 |-7-------------|-(7)-----------|-(7)--------|-(7)----|
 |---------------|---------------|------------|--------|

|
| E Q E H H Q E E W W
 
 |---------------|---------------|------------|--------|
 |-7--8---8-8----|--------8----8-|------------|--------|
 |-7h=9---9-9----|--------9----9-|------------|--------|
 |-7h=9---9-9----|--------9--9-9-|------------|--------|
 |-7-(7)--7-7----|--------7--7-7-|------------|--------|
 |---------------|---------------|------------|--------|

|
| Gtrs V, VI
| <
| W W W +W
 
 |---------------|---------------|------------|--------|
 |---------------|---------------|------------|--------|
 |---------------|---------------|------------|--------|
 |---------------|---------------|--2---------|-(2)----|
 |---------------|---------------|--2---------|-(2)----|
 |---------------|---------------|--0---------|-(0)----|

<br /

Important: The song above is NOT stored on the Chordie server. The original song is hosted at www.xguitar.com. Chordie works as a search engine and provides on-the-fly formatting. Chordie does not index songs against artists'/composers' will. To remove this song please click here.

Text color:
Chord color:
Chord grids: 
Font size:    
Page size: 

A Bbsus2 Bm C#m D Dm E Em Emadd2 F# G Gm
Rate #1 of 2 versions

Login - add to songbook

SHARE PAGE  



You need to log in to post comments