Guitar Tabs, Chords and Lyrics
Major upgrade!! After one year development the new version of Chordie is now online! Please give feedback.


The Amen Corner   Opeth

 
 |----------------|------------------------------------------------------------------------------------------|
 |----------------|------------------------------------------------------------------------------------------|
 |----------------|------------------------------------------------------------------------------------------|
 |--9--8----------|--9-9-8-8-8---------8-8-------------------------------------------------------------------|
 |--7--7----------|--7-7-7-7-7---------7-7-------------------------------------------------------------------|
 |--0--6--/7-6-3--|--0-0-6-6-6--/7-6-3-6-6-------------------------------------------------------------------|

 


 |


 |


 

 
 |----------------|------------------------------------------------------------------------------------------|
 |----------------|------------------------------------------------------------------------------------------|
 |----------------|------------------------------------------------------------------------------------------|
 |--9--8----------|--9-9-8-8-8---------8-8-------------------------------------------------------------------|
 |--7--7--/5-4-1--|--7-7-7-7-7--/5-4-1-7-7-------------------------------------------------------------------|
 |--0--6----------|--0-0-6-6-6---------6-6-------------------------------------------------------------------|

 


 


 


 X4


 

 
 |---------------------------|--------------------------|-------------------|-----------------------------------|
 |---------------------------|-----------------5--------|-------------------|-----------------------------------|
 |---------------------------|------------2-h3---3--2-4-|-------------------|-----------------------------------|
 |--2------------------------|--2--6--5-----------------|-----6-5----9------|-2---------------------------------|
 |--2------------------------|--2--6--5-----------------|-------------------|-2---------------------------------|
 |--0------------------------|--0--4--3-----------------|-0--------7-----1--|-0---------------------------------|

 


 | | | |


 | | | |


 

 
 |---------------------------|--------------------------|-------------------|-----------------------------------|
 |-----------------5---------|-----------------5--------|-------------------|-----------------------------------|
 |------------2-h3---3--2-4--|------------2-h3---3--2-4-|-------------------|-----------------------------------|
 |--2--6--5------------------|--2--6--5-----------------|-------------------|-2---------------------------------|
 |--2--6--5------------------|--2--6--5-----------------|--------7----8-----|-2---------------------------------|
 |--0--4--3------------------|--0--4--3-----------------|--3--0-----0----4--|-0---------------------------------|
 |----------------------|----------------|----------------------|-------------------------------------------|
 |----------------------|----------------|----------------------|-------------------------------------------|
 |----------------------|----------------|----------------------|-------------------------------------------|
 |----------------------|----------------|----------------------|-------------------------------------------|
 |----------------------|-----------6-7--|-5-/7--7-7-7--5--5--5-|-----------6-7-----------------------------|
 |----------------------|-0--4-5-8-------|-0-(0)-0-0-0--3--3--3-|-0--4-5-8----------------------------------|

 


 | | | | |


 | | | | |


 

 
 |----------------------|----------------|----------------------|-------------------------------------------|
 |----------------------|----------------|----------------------|-------------------------------------------|
 |----------------------|----------------|----------------------|-------------------------------------------|
 |----------------------|----------------|----------------------|-------------------------------------------|
 |-5-/7--7-7-7--6--5--3-|-/7--6---0------|-5-/7--7-7-7--6--5--3-|-/7--6----6--7-----------------------------|
 |-0-(0)-0-0-0--3--3--3-|-------8---7-7--|-0-(0)-0-0-0--3--3--3-|-------8-8---------------------------------|

 


 


 x2 2 first time


 

 
 |-------------|---------------------------------|---------------------|------------------------------------|
 |-------------|---------------------------------|---------------------|------------------------------------|
 |-------------|---------------------------------|---------------------|------------------------------------|
 |-8-8-8-8-8-8-|-3-3-3-3----------------8/9\8-2--|--14-17-16--14-14-13-|-2-2-2-2-2-2-2----------------------|
 |-------------|-----------7-7-7-7-7-7-----------|---------------------|-2 2-2-2-2-2-2----------------------|
 |-6-6-6-6-6-6-|-1-1-1-1---0-0-0-0-0-0--6/7\6-0--|--12-15-14--12-12-11-|-0-0-0-0-0-0-0----------------------|

 


 | | | * * |


 

 
 |-------------|---------------------------------|---------------------|------------------------------------|
 |-------------|---------------------------------|---------------------|------------------------------------|
 |-6-6-6-6-7-6-|-6-6-6-6-------------------------|-14/16-15--11/12-11--|-14/16-15--11/12-11-----------------|
 |-------------|-----------5-5-5-5-5-5--8--5--2--|---------------------|------------------------------------|
 |-4-4-4-4-5\4-|-4-4-4-4-------------------------|-12/14-13--9-/10-9---|-12/14-13--9-/10-9------------------|
 |-------------|-----------3-3-3-3-3-3--6--3--0--|---------------------|------------------------------------|

 


 


 * = the last time variation with --


 [--]  


 [12]  


 [--]10


 [--]  


 


 

 
 |-0-0-0-0-0---------------------------------------------|-------------------------------|
 |-0-0-0-0-0--------------0------------------------------|-------------------------------|
 |-2-2-2-2-2----------0-----0--------------------2-2-2-2-|-------------------------------|
 |-2-2-2-2-2------4-----4-----4--0--4-4-4-4-4-4--2-2-2-2-|-----------------9-7-------4-4-|
 |-0-0-0-0-0----2---2---------------4-4-4-5-5-5--0-0-0-0-|/9-7-7---------9-----------4-4-|
 |------------0------------------------------------------|-------7--7/10-------10-9--2-2-|

 


 |


 |


 

 
 |-------------------------------------------------------|-------------------------------|
 |-------------------------------------------------------|-------------------------------|
 |-9-9-7-9--11----------------------11-11/12--6/7-6---7--|-------------------------------|
 |-------------------------------------------------------|--2--4-5--9--7--4-4------------|
 |-7-7-5-7--9-----------------------9--9-/10--4/5-4---5--|--2--2-2--7--4--4-4------------|
 |-------------------------------------------------------|--0--2-3--7--5--2-2------------|
 |--------------------------|------------------------------------------------------------|
 |--------------------------|------------------------------------------------------------|
 |--------------------------|------------------------------------------------------------|
 |-2-4-5-7-4--------2-4-----|--2--4-5--9--7--4-4-----------------------------------------|
 |-2-4-5-7-4--0-1-2-----2---|--2--2-2--7--4--4-4-----------------------------------------|
 |-0-2-3-5-2--------------3-|--0--2-3--7--5--2-2-----------------------------------------|
 |------------------------------------|
 |------------------------------------|
 |------------------------------------|
 main solo |-----------9-9-9-9-9----------------|
 |-----------7-7-7-7-7----------------|
 |----------------------0-10-9-0-10-9-|

 


 | |


 

 
 |--------------------------------------------------|------------------------------------|
 |--------6-6-6-----1--1-1--4-4-4--8-8-8-8--6-6-6-6-|------------------------------------|
 |-5-5-5--7-7-7-----1--1-1--5-5-5--9-9-9-10-7-7-7-7-|------------------------------------|
 |-7-7-7--7-7-7---2-3--3-3--5-5-5--9-9-9-9--7-7-7-7-|-9-9-9-9-9-4-4-4-4-4----3/4----3/4--|
 |-7-7-7--5-5-5---2-3--3-3--3-3-3--7-7-7-7--5-5-5-5-|-9-9-9-9-9-1-1-1-1-1----------------|
 |-5-5-5----------0-1--1-1--------------------------|-7-7-7-7-7-2-2-2-2-2--0-1/2--0-1/2--|
 |--------------------------------|
 |--------------------------------|
 |---------0---------3-3-3-3------|
 |-2-2-1h2-----1h2-2-3-3-3-3------|
 |-2-2---------------1-1-1-1------|
 |-0-0-------0--------------------|

 


 | |


 | |


 

 
 |--------------------------------|
 |--------------------------------|
 |-----------3--------------------|
 |-2-2-7/8-5---8----3/4---3/4-----|
 |-2-2----------------------------|
 |-0-0-5/6-3---6--0-1/2-0-1/2-----|
 |------------------------------------------------|----------------------------------------------------------|
 |------------------------------------------------|----------------------------------------------------------|
 |------0-------------3------3---------3----------|----------------------------------------------------------|
 |--1h2------1h2-2------2---------2------2--------|----------------------------------------------------------|
 |-----------------1------0---------0------0------|----------------------------------------------------------|
 |-0-------0--------------------------------------|----------------------------------------------------------|
 |---------------------------------------|------------------------------------|-------------------------------|
 |---------------------------------------|------------------------------------|-------------------------------|
 |----------------------------6/7-7-7-7--|------------------------------------|-------------------------------|
 |-4-5---4-----4-5---4--------8/9-9-9-9--|------------------------------------|-------------------------------|
 |-----7---5-7-----7---5-7...------------|------------------------------------|-------------------------------|
 |---------------------------------------|------------------------------------|-------------------------------|

 


 | | |


 | | |


 

 
 |---------------------------------------|------------------------------------|-------------------------------|
 |---------------------------------------|------------------------------------|-------------------------------|
 |-----------9-9-9-9---------------------|------------------------------------|-------4-4---------------------|
 |--2-2-2-2--9-9-9-9-----------8-9-9-9-9-|---4-4-4-4-4-4-7-7-7-7-7--2-2-2-2-2-|--2-2--5-5---------------------|
 |--2-2-2-2--7-7-7-7--9-9-9-9--8-9-9-9-9-|---5-5-5-5-5-5-5-5-5-5-5--3-3-3-3-3-|--3-3--7-7-5-------------------|
 |--0-0-0-0-----------10101010-6/7-7-7-7-|---7-7-7-7-7-7------------5-5-5-5-5-|--5-5--------7-----------------|
 |---------------------------0-----0-----0-----|----0------0------0--|--------------------------------------|
 |--0---------------------0----6-----6-----6---|--6------6------6----|--------------------------------------|
 |----5-------------4-----4------7-----7-----7-|------7------7------7|--------------------------------------|
 |------7--------7------7----------------------|---------------------|--------------------------------------|
 |--------7---7--------------------------------|---------------------|--------------------------------------|
 |----------0----------------------------------|---------------------|--------------------------------------|

 


 


 


 main solo


 

 
 |-------------------------------7b7----7--------------------------------------------------------8----------|
 |-----------------------------------10------10------------------------------------------------------10---10|
 |-------------/9-7----7-9-9--10----------9------9-7\5------------------------------/7-10-9--7-9---9----9---|
 |-9-9/10-7-10------9-----------------------------------9----7-9-10-7-9---7-9-10-7--------------------------|
 |----------------------------------------------------------------------------------------------------------|
 |----------------------------------------------------------------------------------------------------------|
 |-7-------------------7b--7--------------------------------------------------------------------------------|
 |---9----9----------9-------9----9-------------------------------------------------------------------------|
 |-----10---10--7-10-----------10---10--7-10----------------------------------------------------------------|
 |----------------------------------------------------------------------------------------------------------|
 |----------------------------------------------------------------------------------------------------------|
 |----------------------------------------------------------------------------------------------------------|

 


 


 second part


 


 

 
 |--------10------10-----10-13-10---------------------------------------------------------------------------|
 |-9b-10-----14b-----14b----------14b-10--------------8b-8----8b-8------------------------------------------|
 |----------------------------------------12-10*****-------10------10-9-------------------------------------|
 |----------------------------------------------------------------------------------------------------------|
 |----------------------------------------------------------------------------------------------------------|
 |----------------------------------------------------------------------------------------------------------|

 


 *** i will find this for the next version !!


 


 

 
 |----------12------------------------------10--------------------------------------------------------------|
 |---8---12----12--10-13-10--------------10-----10-9-10-----------------------------------------------------|
 |-9------------------------10-9-10-7-10--------------------------------------------------------------------|
 |----------------------------------------------------------------------------------------------------------|
 |----------------------------------------------------------------------------------------------------------|
 |----------------------------------------------------------------------------------------------------------|
 |----------------------------------------------------------------------------------------------------------|
 |----------------------------------------------------------------------------------------------------------|
 |-------------------------------------------12-------------------------------------------------------------|
 |-10-10-12-14-14-14-12-10-12-12-12-13-12-13----13-12-10-9-10-9-7-5-7-5-2-----------------------------------|
 |-12-12-14-15-15-15-14-12-14-14-14-15-14-15----------------------------------------------------------------|
 |----------------------------------------------------------------------------------------------------------|


Important: The song above is NOT stored on the Chordie server. The original song is hosted at www.xguitar.com. Chordie works as a search engine and provides on-the-fly formatting. Chordie does not index songs against artists'/composers' will. To remove this song please click here.

This song is displayed as text-only. Transposing and tuning is only available for chordpro-songs.
Rate #3 of 3 versions

Login - add to songbook

SHARE PAGE  



You need to log in to post comments