Guitar Tabs, Chords and Lyrics
Update 25:10. 13:00. Site is back up running again. Songbooks are recovered. Woring on getting search back up..


April Ethereal  Opeth

As recorded by Opeth
From the 1998 Album MY ARMS, YOUR HEARSE
Words and Music by Mikael ┼kerfeldt
Arranged by Opeth
[G#m/maj11/G]3 4 5 1 0 x 0 2 [E5]x x x x x 2 [B5]4 x x x x 5 4[D] x x x
5 9[F#m/A] x x x x 6 9[F#/Bb] x x x x
Gtr I (E A D G B E) - 'Untitled'
Gtr II (E A D G B E) - 'Untitled'
Gtr III (E A D G B E) - 'Acoustic I'
Gtr IV (E A D G B E) - 'Acoustic II'
Gtr V (E A D G B E) - 'Mid Left'
Gtr VI (E A D G B E) - 'Mid Right'
Intro Verse I
Q.=135
12/8[Am] [Bm]
Gtrs I, II
Wx3 H. E E E E E E Q E E E E Q E E E E
 
 |----------------|---------------------||--------------------------|
 |----------------|---------1-1-1-1-1-1-||o-3--3-3-3-3-3--3-3-3-3---|
 |----------------|---------2-2-2-2-2-2-||--4--4-4-4-4-4--4-4-4-4---|
 |----------------|---------2-2-2-2-2-2-||--4--4-4-4-4-4--4-4-4-4---|
 |----------------|---------0-0-0-0-0-0-||o-2--2-2-2-2-2--2-2-2-2---|
 |----------------|---------------------||--------------------------|

Q E E E E [Am]E E E E E E [Bm]Q. [F#m]Q E E E E Q E
 
 |------------------------|----------------------|
 |-3--3-3-3-3-1-1-1-1-1-1-|-3--------------------|
 |-4--4-4-4-4-2-2-2-2-2-2-|-4----2--2-2-2-2-2--2-|
 |-4--4-4-4-4-2-2-2-2-2-2-|-4----4--4-4-4-4-4--4-|
 |-2--2-2-2-2-0-0-0-0-0-0-|-2----4--4-4-4-4-4--4-|
 |------------------------|------2--2-2-2-2-2--2-|

1.,2.,3.,4.,5. 6.
E E E Q E [Am]E E E E E E [F#m]E E E Q E E E E E E E
 
 |-------------------------||------------------------|
 |------------1-1-1-1-1-1-o||------------------------|
 |-2-2-2-2--2-2-2-2-2-2-2--||-2-2-2-2--2-2-2-2-2-2-2-|
 |-4-4-4-4--4-2-2-2-2-2-2--||-4-4-4-4--4-4-4-4-4-4-4-|
 |-4-4-4-4--4-0-0-0-0-0-0-o||-4-4-4-4--4-4-4-4-4-4-4-|
 |-2-2-2-2--2--------------||-2-2-2-2--2-2-2-2-2-2-2-|

Pre-Verse
[Em] [E5/C] [E5/B]  
[6/4] Gtr I
Q E E E E Q E E E E Q E E E E Q E E E E
 
 ||------------------------|-----------------------|
 ||o-8---------------------|-----------------------|
 ||--9--9-9-9-9-9--9-9-9-9-|-9--9-9-9-9-9--9-9-9-9-|
 ||--9--9-9-9-9-9--9-9-9-9-|-9--9-9-9-9-9--9-9-9-9-|
 ||o-7--7-7-7-7-7--7-7-7-7-|-7--7-7-7-7-7--7-7-7-7-|
 ||-------------8--8-8-8-8-|-7--7-7-7-7-7--7-7-7-7-|

|
| Gtr II
| Q E E E E Q E E E E Q E E E E Q E E E E
 
 ||------------------------|-----------------------|
 ||o-----------------------|-----------------------|
 ||--9--9-9-9-9-9--9-9-9-9-|-9--9-9-9-9-9--9-9-9-9-|
 ||--9--9-9-9-9-9--9-9-9-9-|-9--9-9-9-9-9--9-9-9-9-|
 ||o-7--7-7-7-7-7--7-7-7-7-|-7--7-7-7-7-7--7-7-7-7-|
 ||-------------8--8-8-8-8-|-7--7-7-7-7-7--7-7-7-7-|

[D#m] Q E E E E [Am]Q E E E E [F#m]Q E E E E [Am] Q E E E E 4x
 
 |----------------------------|-----------------------------||
 |----------------------------|----------------------------o||
 |----------------------------|-----------------------------||
 |-13--13-13-13-13-7--7-7-7-7-|-4--4-4-4-4--7---7--7--7--7--||
 |----------------------------|----------------------------o||
 |-11--11-11-11-11-5--5-5-5-5-|-2--2-2-2-2--5---5--5--5--5--||

|
| Q E E E E Q E E E E Q E E Q Q E E E E 4x
 
 |----------------------------|-----------------------------||
 |----------------------------|----------------------------o||
 |----------------------------|-----------------------------||
 |----------------------------|-7--7-7-7S==10--10-10-10-10--||
 |--9---9--9--9-10------------|----------------------------o||
 |-----------------8--8-8-8-8-|-5--5-5-5S===8---8--8--8--8--||

Verse II
1[Bm]2/8[Am]
Gtrs I, II
Q E E E E Q E E E E Q E E E E E E E E E E
 
 ||------------------------|------------------------|
 ||o-3--3-3-3-3-3--3-3-3-3-|-3--3-3-3-3-1-1-1-1-1-1-|
 ||--4--4-4-4-4-4--4-4-4-4-|-4--4-4-4-4-2-2-2-2-2-2-|
 ||--4--4-4-4-4-4--4-4-4-4-|-4--4-4-4-4-2-2-2-2-2-2-|
 ||o-2--2-2-2-2-2--2-2-2-2-|-2--2-2-2-2-0-0-0-0-0-0-|
 ||------------------------|------------------------|

[Bm]Q. [F#m]Q E E E E Q E E E E Q E [Am]E E E E E E
 
 |----------------------|-------------------------||
 |-3--------------------|------------1-1-1-1-1-1-o||
 |-4----2--2-2-2-2-2--2-|-2-2-2-2--2-2-2-2-2-2-2--||
 |-4----4--4-4-4-4-4--4-|-4-4-4-4--4-2-2-2-2-2-2--||
 |-2----4--4-4-4-4-4--4-|-4-4-4-4--4-0-0-0-0-0-0-o||
 |------2--2-2-2-2-2--2-|-2-2-2-2--2--------------||

[Bm]Gtrs I, II[Am]
Q E E E E Q E E E E Q E E E E E E E E E E
 
 |-------------------------|---------------------------|
 |-3---3-3-3-3-3---3-3-3-3-|--3---3-3-3-3-1--1-1-1-1-1-|
 |-4---4-4-4-4-4---4-4-4-4-|--4---4-4-4-4-2--2-2-2-2-2-|
 |-4---4-4-4-4-4---4-4-4-4-|--4---4-4-4-4-2--2-2-2-2-2-|
 |-2---2-2-2-2-2---2-2-2-2-|--2---2-2-2-2-0--0-0-0-0-0-|
 |-------------------------|---------------------------|

|
| Gtr III
| E E E Q E H. +H. H.
 
 |-------------------------|---------------------------|
 |-3-3-3-3---3-3-----------|-(3)-----------------------|
 |-4-4-4-4---4-4-----------|-(4)-----------------------|
 |-4-4-4-4---4-4-----------|-(4)-----------------------|
 |-2-2-2-2---2-2-----------|-(2)-----------------------|
 |-------------------------|---------------------------|

[Bm]Q. [F#m]Q E E E E Q E E E E Q E [Am]E E E E E E
 
 |----------------------|---------------------------|
 |-3--------------------|------------1-1-1-1-1-1----|
 |-4----2--2-2-2-2-2--2-|-2-2-2-2--2-2-2-2-2-2-2----|
 |-4----4--4-4-4-4-4--4-|-4-4-4-4--4-2-2-2-2-2-2----|
 |-2----4--4-4-4-4-4--4-|-4-4-4-4--4-0-0-0-0-0-0----|
 |------2--2-2-2-2-2--2-|-2-2-2-2--2----------------|

|
| W W
 
 |----------------------|---------------------------|
 |----------------------|---------------------------|
 |----------------------|---------------------------|
 |----------------------|---------------------------|
 |----------------------|---------------------------|
 |----------------------|---------------------------|

[Bm]Q E E E E Q E E E E Q E E E E [Am]E E E E E E
 
 |-------------------------|---------------------------|
 |-3---3-3-3-3-3---3-3-3-3-|--3---3-3-3-3-1--1-1-1-1-1-|
 |-4---4-4-4-4-4---4-4-4-4-|--4---4-4-4-4-2--2-2-2-2-2-|
 |-4---4-4-4-4-4---4-4-4-4-|--4---4-4-4-4-2--2-2-2-2-2-|
 |-2---2-2-2-2-2---2-2-2-2-|--2---2-2-2-2-0--0-0-0-0-0-|
 |-------------------------|---------------------------|

|
| E E E Q E H. +H. H.
 
 |-------------------------|---------------------------|
 |-3-3-3-3---3-3-----------|-(3)-----------------------|
 |-4-4-4-4---4-4-----------|-(4)-----------------------|
 |-4-4-4-4---4-4-----------|-(4)-----------------------|
 |-2-2-2-2---2-2-----------|-(2)-----------------------|
 |-------------------------|---------------------------|

Bridge
[F#m]W.
 
 |---------------------------|
 |---------------------------|
 |-2-------------------------|
 |-4-------------------------|
 |-4-------------------------|
 |-2-------------------------|

|
| E E E E E E E E E E E E
 
 |---------------------------|
 |---------------------------|
 |--------2-----------2------|
 |------4---4-------4---4----|
 |----4-------4---4-------4--|
 |-2------------2------------|

[F5/E]W.
 
 |--------------------------|
 |--------------------------|
 |--------------------------|
 |-4------------------------|
 |-4------------------------|
 |-0------------------------|

|
| E E E E E E E E E E E E
 
 |--------------------------|
 |--------2-----------2-----|
 |------2---2-------2---2---|
 |----6-------6---6-------6-|
 |--------------------------|
 |-0------------0-----------|

[Amaj7/D]Q E Q. H. [G#m/maj11/G]E E E Q E E E E Q E
 
 |---------------------------|--------------------------|
 |---------------------------|--------------------------|
 |---------------------------|--------------------------|
 |---------------------------|--------------------------|
 |-5---5---------------------|-4-----------4------------|
 |---------------------------|---3---3---3---3---3---3--|

|
| E E E E E E E E E E E E E E E E E E E E E E E E
 
 |---------------------------|--------------------------|
 |-------2-------------2-----|-------0-----------0------|
 |-----2----2--------2---2---|-----1---1-------1---1----|
 |---6--------6----6-------6-|---5-------5---5-------5--|
 |-5------------5------------|--------------------------|
 |---------------------------|-3-----------3------------|

Verse III
[Eb5]Gtr I
Q E E E E Q E E E E Q E E E E Q E E E E
 
 ||----------------------------|---------------------------|
 ||o------------11--11-11--x-x-|------------11S=14-14--x-x-|
 ||--9--9-9-x-x--9---9--9--x-x-|-9--9-9-x-x--9S=12-12--x-x-|
 ||--8--8-8-x-x--8---8--8--x-x-|-8--8-8-x-x--8S=11-11--x-x-|
 ||o-7--7-7-x-x----------------|-7--7-7-x-x----------------|
 ||--0--0-0--------------------|-0--0-0--------------------|

|
| Gtr II
| Q E E E E Q E Q. Q E E E E Q E Q.
 
 ||----------------------------|---------------------------|
 ||o---------------------------|---------------------------|
 ||----------------------------|---------------------------|
 ||----------------------------|---------------------------|
 ||o-------------6-------------|-------------6-------------|
 ||--0--0-0-0h4------5h=6------|-0--0-0-0h4------5h=6------|

1.,2.,3.
Q E E E E Q E E E E E [C#b5]E E E E [Ab5]E E [Fb5]E E Q e 4x
 
 |--------------------------|-------------------------||
 |------------11--11-11-x-x-|------------------------o||
 |-9--9-9-x-x--9---9--9-x-x-|-------------------------||
 |-8--8-8-x-x--8---8--8-x-x-|-x-5---5-----------------||
 |-7--7-7-x-x---------------|-x-4---4---6---2---2--2-o||
 |-0--0-0-------------------|-----------5---1---1--1--||

|
| Q E E E E Q E E E E E E E E E E E E E Q e 4x
 
 |--------------------------|-------------------------||
 |--------------------------|------------------------o||
 |--------------------------|-------------------------||
 |----------------------x-x-|-x-5---5-----------------||
 |-------------6--------x-x-|-x-4---4---6---2---2--2-o||
 |-0--0-0-0h4------5h=6-----|-----------5---1---1--1--||

4.
[C#b5] [Ab5] [Fb5]  
E E E E E E E E E Q E [9/4] W
 
 |------------------------|------|
 |------------------------|------|
 |------------------------|------|
 |-x-5---5----------------|------|
 |-x-4---4---6---2---2----|------|
 |-----------5---1---1----|------|

|
| E E E E E E E E E Q E W
 
 |------------------------|------|
 |------------------------|------|
 |------------------------|------|
 |-x-5---5----------------|------|
 |-x-4---4---6---2---2----|------|
 |-----------5---1---1----|------|

1[G]2/8[Em] [E/F#]
Q E E E E Q E E E E Q E E E E Q E E E E
 
 ||--3--3-3-3-3-3--3-3-3-3-|-----------------------|
 ||o-5--5-5-5-5-5--5-5-5-5-|-5--5-5-5-5-5--5-5-5-5-|
 ||--4--4-4-4-4-4--4-4-4-4-|-5--5-5-5-5-5--5-5-5-5-|
 ||--5--5-5-5-5-5--5-5-5-5-|-2--2-2-2-2-2--2-2-2-2-|
 ||o-----------------------|-----------------------|
 ||------------------------|-----------------------|

|
| Q E E E E Q E E E E Q E E E E Q E E E E
 
 ||------------------------|-----------------------|
 ||o-----------------------|-----------------------|
 ||------------------------|-----------------------|
 ||------------------------|-----------------------|
 ||o-2--2-2-2-2-2--2-2-2-2-|-----------------------|
 ||------------------------|-3--3-3-3-3-2--2-2-2-2-|

[Am]Q E E E E Q E E E E [E]E E E E E E [F#] E E E E E E 6x
 
 |-5--5-5-5-5-5--5-5-5-5-|----------------------------------||
 |-5--5-5-5-5-5--5-5-5-5-|---------------------------------o||
 |-5--5-5-5-5-5--5-5-5-5-|-4-4-4-4-4-4-----4---4-----4---4--||
 |-2--2-2-2-2-5--5-5-5-5-|-7---7-5---5--4-(4)---------------||
 |-----------------------|------------------------6-(6)----o||
 |-----------------------|----------------------------------||

|
| Q E E E E Q E E E E Q E E E E Q E E E E 6x
 
 |-----------------------|----------------------------------||
 |-----------------------|---------------------------------o||
 |-----------------------|-9---9-9-9-9-11-----11-11-11--11--||
 |-----------------------|----------------------------------||
 |-3--3-3-3-3-3--3-3-3-3-|-7---7-7-7-7--9------9--9--9---9-o||
 |-----------------------|----------------------------------||

Interlude I
N.C.
 
 PM----| PM----|

Q Q Q +Q E E E E Q Q Q +Q E E E E
 
 ||------------------------|-----------------------|
 ||o-----------------------|-----------------------|
 ||------------------------|-----------------------|
 ||------------------------|-----------------------|
 ||o-7---------------------|-7---------------------|
 ||-----6--5--(5)--0-0-0-0-|----6--5--(5)--0-0-0-0-|

|
 
 | PM----| PM----|

| Q Q Q +Q E E E E Q Q Q +Q E E E E
 
 ||------------------------|-----------------------|
 ||o-----------------------|-----------------------|
 ||------------------------|-----------------------|
 ||------------------------|-----------------------|
 ||o-7---------------------|-7---------------------|
 ||-----6--5--(5)--0-0-0-0-|----6--5--(5)--0-0-0-0-|

1.,2.,3.
PM----|
Q Q Q +Q E E E E E Q Q E +E Q Q.
 
 |-----------------------|-------------------------||
 |-----------------------|------------------------o||
 |-----------------------|-------------------------||
 |-----------------------|-------------------------||
 |-7---------------------|------2--3-(3)-2--------o||
 |----6--5--(5)--0-0-0-0-|-0h5--------------4------||

|
| PM----|
| Q Q Q +Q E E E E E Q Q E +E Q Q.
 
 |-----------------------|-------------------------||
 |-----------------------|------------------------o||
 |-----------------------|-------------------------||
 |-----------------------|-------------------------||
 |-7---------------------|------2--3-(3)-5--2-----o||
 |----6--5--(5)--0-0-0-0-|-0h5---------------------||

Chorus
4. Q=95
[E5] [G6] [G#6]  
Gtr III[4/4]
H. E E E E E E +W. +H. Q
 
 |--------------------------|------------------|---------------|
 |--------------------------|------------------|---------------|
 |------------------4-----5-|-(5)--------------|-(5)-----------|
 |----------------2-----3---|------------------|---------------|
 |--------------------------|------------------|---------------|
 |-------------3------4-----|------------------|---------------|

|
| Gtrs I, II
| PM--|
| Q E E E E H. H. H. H. S E.
 
 |--------------------------|------------------|---------------|
 |--------------------------|------------------|---------------|
 |--------------------------|------------------|---------------|
 |-2---------2--------------|------------------|---------------|
 |-2---------2--------------|------------------|---------------|
 |-0---0-0-0-0--------------|------------------|----------3-2--|

[Em]Gtrs I, II[Esus2] [Bm]
E S S E S S +S S E E S S E S S E S S +S S E E S S
 
 |---7-7-7-7-7-(7)-7-7-7-7-7-||--2-2-2-2-2-2-(2)-2-2-2-2-2-|
 |---8-8-8-8-8-(8)-7-7-7-7-7-||o-3-3-3-3-3-3-(3)-3-3-3-3-3-|
 |---9-9-9-9-9-(9)-9-9-9-9-9-||--4-4-4-4-4-4-(4)-4-4-4-4-4-|
 |---9-9-9-9-9-(9)-9-9-9-9-9-||--4-4-4-4-4-4-(4)-4-4-4-4-4-|
 |---7-7-7-7-7-(7)-7-7-7-7-7-||o-2-2-2-2-2-2-(2)-2-2-2-2-2-|
 |-0-------------------------||----------------------------|

[Dm]E S S E S S +S [Dsus2]S E E S S
 
 |-5-5-5-5-5-5-(5)-5-5-5-5-5--|
 |-6-6-6-6-6-6-(6)-5-5-5-5-5--|
 |-7-7-7-7-7-7-(7)-7-7-7-7-7--|
 |-7-7-7-7-7-7-(7)-7-7-7-7-7--|
 |-5-5-5-5-5-5-(5)-5-5-5-5-5--|
 |----------------------------|

[Am]E S S E S S +S S E E S S [Em]E S S E S S +S [Esus2]S E E S S 3x
 
 |-0-0-0-0-0-0-(0)-0-0-0-0-0-|-7-7-7-7-7-7-(7)-7-7-7-7-7--||
 |-1-1-1-1-1-1-(1)-1-1-1-1-1-|-8-8-8-8-8-8-(8)-7-7-7-7-7-o||
 |-2-2-2-2-2-2-(2)-2-2-2-2-2-|-9-9-9-9-9-9-(9)-9-9-9-9-9--||
 |-2-2-2-2-2-2-(2)-2-2-2-2-2-|-9-9-9-9-9-9-(9)-9-9-9-9-9--||
 |-0-0-0-0-0-0-(0)-0-0-0-0-0-|-7-7-7-7-7-7-(7)-7-7-7-7-7-o||
 |---------------------------|----------------------------||

[Bm]E S S E S S +S S E E S S
 
 |-2-2-2-2-2-2-(2)-2-2-2-2-2--|
 |-3-3-3-3-3-3-(3)-3-3-3-3-3--|
 |-4-4-4-4-4-4-(4)-4-4-4-4-4--|
 |-4-4-4-4-4-4-(4)-4-4-4-4-4--|
 |-2-2-2-2-2-2-(2)-2-2-2-2-2--|
 |----------------------------|

[Dm]E S S E S S +S [Dsus2]S E E S S [Am]E S S E S S +S S E E S S
 
 |-5-5-5-5-5-5-(5)-5-5-5-5-5-|-0-0-0-0-0-0-(0)-0-0-0-0-0-|
 |-6-6-6-6-6-6-(6)-5-5-5-5-5-|-1-1-1-1-1-1-(1)-1-1-1-1-1-|
 |-7-7-7-7-7-7-(7)-7-7-7-7-7-|-2-2-2-2-2-2-(2)-2-2-2-2-2-|
 |-7-7-7-7-7-7-(7)-7-7-7-7-7-|-2-2-2-2-2-2-(2)-2-2-2-2-2-|
 |-5-5-5-5-5-5-(5)-5-5-5-5-5-|-0-0-0-0-0-0-(0)-0-0-0-0-0-|
 |---------------------------|---------------------------|

[Em]E S S E S S +S [Esus2]S E E S S
 
 |-7------7---7-----7-------7----7---(7)-7----7-----7-7-7-|
 |-8------8---8-----8-------8----8---(8)-7----7-----7-7-7-|
 |-9------9---9-----9-------9----9---(9)-9----9-----9-9-9-|
 |-9------9---9-----9-------9----9---(9)-9----9-----9-9-9-|
 |-7------7---7-----7-------7----7---(7)-7----7-----7-7-7-|
 |--------------------------------------------------------|

|
| Gtrs V, VI
 
 | |------6------| |------6-------| |----3-----|

| S S S S S S S S S S S S E E E Q
 
 |--------------------------------------------------------|
 |-------------------------------------------------12-----|
 |----------9---11-12-11-9-11------9-11----12---14--------|
 |----------------------------12--------------------------|
 |-7-9-10-9-----------------------------------------------|
 |--------------------------------------------------------|

[Bm] E S S E S S +S S E E S S [Dm] E S S E S S +S [Dsus2]S E E S S
 
 |--2---2---2-2--2-2-(2)-2-2-2-2-2-|--5--5-5-5---5-5--(5)-5-5-5--5--5-|
 |--3---3---3-3--3-3-(3)-3-3-3-3-3-|--6--6-6-6---6-6--(6)-5-5-5--5--5-|
 |--4---4---4-4--4-4-(4)-4-4-4-4-4-|--7--7-7-7---7-7--(7)-7-7-7--7--7-|
 |--4---4---4-4--4-4-(4)-4-4-4-4-4-|--7--7-7-7---7-7--(7)-7-7-7--7--7-|
 |--2---2---2-2--2-2-(2)-2-2-2-2-2-|--5--5-5-5---5-5--(5)-5-5-5--5--5-|
 |---------------------------------|----------------------------------|

|
| |--3--|
| E E E H. Q. E +Q. S S
 
 |---------------------------------|----------------------------------|
 |---------------------------------|-----------/10---(10)-------13p12-|
 |-11------------------------------|-10-------------------------------|
 |----9---9---9--------------------|----------------------------------|
 |---------------------------------|----------------------------------|
 |---------------------------------|----------------------------------|

[Am] E S S E S S +S S E E S S
 
 |--0---0-0--0--0-0-(0)-0--0-----0-------0--0-|
 |--1---1-1--1--1-1-(1)-1--1-----1-------1--1-|
 |--2---2-2--2--2-2-(2)-2--2-----2-------2--2-|
 |--2---2-2--2--2-2-(2)-2--2-----2-------2--2-|
 |--0---0-0--0--0-0-(0)-0--0-----0-------0--0-|
 |--------------------------------------------|

|
| S S E +Q +S S S S S S S S
 
 |--------------------------------------------|
 |---------------------------10-10b12---------|
 |----------------------9-12----------12-9-12-|
 |-10p9S7---(7)-----(7)-----------------------|
 |--------------------------------------------|
 |--------------------------------------------|

[Em] E S S E S S +S [Esus2]S E E S S [Bm] E S S E S S +S S
E E S S
 
 |--7----------7-7---7---7-----------7-(7)-7-7-7--7-------7-|-----2----2----2--2--2-2-(2)-2-

2-2-2-2-|
 
 |--8----------8-8---8---8-----------8-(8)-7-7-7--7-------7-|-----3----3----3--3--3-3-(3)-3-

3-3-3-3-|
 
 |--9----------9-9---9---9-----------9-(9)-9-9-9--9-------9-|-----4----4----4--4--4-4-(4)-4-

4-4-4-4-|
 
 |--9----------9-9---9---9-----------9-(9)-9-9-9--9-------9-|-----4----4----4--4--4-4-(4)-4-

4-4-4-4-|
 
 |--7----------7-7---7---7-----------7-(7)-7-7-7--7-------7-|-----2----2----2--2--2-2-(2)-2-

2-2-2-2-|
 
 |----------------------------------------------------------|-------------------------------
 --------|

|
| ~~~
 
 | |---3---|

| S E. E T +T S Q. X T. S a E E E H.
 
 |---------10-------10-----------------------------------10-|-10s12-------------------------
 --------|
 |-10b12==(10)-----(10)-10r-(10)b12r=================12-----|-------10---12-----------------
 --------|
 |----------------------------------12--9--------12-(12)----|-----------------11------------
 --------|
 |----------------------------------------------------------|-------------------------------
 --------|
 |----------------------------------------------------------|-------------------------------
 --------|
 |----------------------------------------------------------|-------------------------------
 --------|

[Dm] E S S E S S +S [Dsus2]S E E S S [Am]E S S E S S +S S E E S S
 
 |--5-5-5--5--5-5-(5)----5-5---5-5-5-|-0--0-0-0-0-0-(0)-0-0-0-0-0--|
 |--6-6-6--6--6-6-(6)----5-5---5-5-5-|-1--1-1-1-1-1-(1)-1-1-1-1-1--|
 |--7-7-7--7--7-7-(7)----7-7---7-7-7-|-2--2-2-2-2-2-(2)-2-2-2-2-2--|
 |--7-7-7--7--7-7-(7)----7-7---7-7-7-|-2--2-2-2-2-2-(2)-2-2-2-2-2--|
 |--5-5-5--5--5-5-(5)----5-5---5-5-5-|-0--0-0-0-0-0-(0)-0-0-0-0-0--|
 |-----------------------------------|-----------------------------|

|
| |-3-|
| Q +E. S T T T S S S E S S Q. S S +H
 
 |-----------------------------------|-----------------------------|
 |-----------------------------------|-----------------------------|
 |-/7-----(7)---4--5p4---4-----------|-----------------------------|
 |---------------------7---7-5-------|----------5-7-(7)------------|
 |-----------------------------5-----|-----------------------------|
 |-------------------------------7-8-|-5---------------------------|

Interlude II
1[Cmaj7Asus2Bsus2]2/8[A5] [Em] [Bm]
Gtrs V, VI
Q. Q. S S Q +Q. E Q E Q E Q +Q. 5x
 
 ||---------------------------|----------------------------||
 ||o--------------------------|---------------------------o||
 ||---------------------------|----------------------------||
 ||--5----9-----9p=7----------|----------------------------||
 ||o-----------------9--(9)---|-10S7--9S10--12S==9--(9)---o||
 ||---------------------------|----------------------------||

|
| Gtrs I, II
| Q. Q. Q. +Q. Q. Q. S S Q +Q. 5x
 
 ||--0----0----(2)------(2)---|----------------------------||
 ||o-0----0-----2-------(2)---|---------------------------o||
 ||--0----2-----4-------(4)---|--2-------------------------||
 ||--2----2-----4-------(4)---|--2----5--------------------||
 ||o-3----0-----2-------(2)---|--0----7------7p5-5--(5)---o||
 ||---------------------------|-------0----------7--(7)----||

[Cmaj7Asus2Bsus2]Q. Q. S S Q +Q. [A5] E Q [Em]E Q [Bm] E Q e Q
 
 |--------------------------|--------------------------|
 |--------------------------|--------------------------|
 |--------------------------|--------------------------|
 |-5----9-----9p=7----------|--------------------------|
 |-----------------9--(9)---|-10S7--9S10--12S==9--9----|
 |--------------------------|--------------------------|

|
| Q. Q. Q. +Q. Q. Q. S S Q e Q
 
 |-0----0----(2)------(2)---|--------------------------|
 |-0----0-----2-------(2)---|--------------------------|
 |-0----2-----4-------(4)---|--2-----------------------|
 |-2----2-----4-------(4)---|--2----5------------------|
 |-3----0-----2-------(2)---|--0----7------7p5-5--5----|
 |--------------------------|-------0----------7--7----|

[Cmaj7]Gtr III[Asus2] [Bsus2]
Q. Q. S S Q +Q.
 
 ||------------------------------------------|
 ||o-----------------------------------------|
 ||------------------------------------------|
 ||--5---------9---------9p=7----------------|
 ||o---------------------------9-------(9)---|
 ||------------------------------------------|

|
| Gtr IV
| S S S E. S S S E. S S S S S S Q.
 
 ||---------0---------0-----------------2----|
 ||o------0---------0----2-(2)-------2-------|
 ||-----0---------2------4p=2--4---4---------|
 ||------------------------------4-----------|
 ||o-3---------0-----------------------------|
 ||------------------------------------------|

[A5] E Q [Em]E Q [Bm] E Q +Q.
 
 |-------------------------------------||
 |------------------------------------o||
 |-------------------------------------||
 |-------------------------------------||
 |-10S7----9S==10--12S==9-------(9)---o||
 |-------------------------------------||

|
| E S E. S S Q S S S S S S Q.
 
 |--------------------------0----------||
 |----------------------------3-------o||
 |------2-----------------4------4-----||
 |----2---------5-------4--------------||
 |--0--------2------0h2---------------o||
 |---------0---------------------------||

Breakdown
Q.=126
[Bmadd4/E]Gtrs I, II[Dsus2/E]
[E] [E] [E] [E] [E] [E] [E] [E] [E] [E] [E] [E] [E] [E] [E] [E] [E] [E] [E] [E] [E] [E] [E] [E]  
 
 ||--------------------------|--------------------------||
 ||o-------------------------|-------------------------o||
 ||--------------------------|--------------------------||
 ||--------------------------|--------------------------||
 ||o-------------------------|-------------------------o||
 ||--0-0-0-0-0-0-0-0-0-0-0-0-|-0-0-0-0-0-0-0-0-0-0-0-0--||

|
| Gtrs III, IV
| E E E E E E E E E E E E E E E E E E E E E E E E
 
 ||--------------------------|--------------------------||
 ||o-------------------------|-------------------------o||
 ||--------7---7-------7---7-|-------7---7-------7---7--||
 ||------9---9-------9---9---|-----7---7-------7---7----||
 ||o---7-----------7---------|---7-----------7---------o||
 ||--0-----------0-----------|-0-----------0------------||

[Eb5]  
[E] [E] [E] [E] [E] [E] [E] [E] [E] [E] [E] [E] [E] [E] [E] [E] [E] [E] [E] [E] [E] [E] [E] [E]  
 
 |-------------------------|-------------------------|
 |-------------------------|-------------------------|
 |-------------------------|-------------------------|
 |-------------------------|-------------------------|
 |-------------------------|-------------------------|
 |-0-0-0-0-0-0-0-0-0-0-0-0-|-0-0-0-0-0-0-0-0-0-0-0-0-|

|
| E E E E E E E E E E E E E E E E E E E E E E E E
 
 |-------------------------|-------------------------|
 |-------------------------|-------------------------|
 |-------9-----------9-----|-------9-----------9-----|
 |-----8---8-------8---8---|-----8---8-------8---8---|
 |---7-----------7---------|---7-----------7---------|
 |-0---------0-0---------0-|-0---------0-0---------0-|

E E E E E E E E E E E E H. +Q. Q.
 
 |-------------------------|--------------------|
 |-------------------------|--------------------|
 |-------------------------|---------------8S===|
 |-------------------------|--------------------|
 |-------------------------|---------------6S===|
 |-0-0-0-0-0-0-0-0-0-0-0-0-|-0-------(0)--------|

|
| E E E E E E E E E E E E H. +H.
 
 |-------------------------|--------------------|
 |-------------------------|--------------------|
 |-------9-----------9-----|--------------------|
 |-----8---8-------8---8---|--------------------|
 |---7-----------7---------|--------------------|
 |-0---------0-0---------0-|-0-------(0)--------|

N.C.(E)
Gtrs I, II
H. +Q. Q. H. +Q. Q.
 
 ||--------------------------|----------------------------|
 ||o-------------------------|----------------------------|
 ||--9-----------(9)-----9S==|=12-----------(12)----12S===|
 ||--------------------------|----------------------------|
 ||o-7-----------(7)-----7S==|=10-----------(10)----10S===|
 ||--------------------------|----------------------------|

|
| Gtrs V, VI
| E E E Q q E H E E E Q E Q q Q
 
 ||--------------------------|----------------------------|
 ||o-------------------------|----------------------------|
 ||--------------------------|----------------------------|
 ||--------------------------|----------------------------|
 ||o-------------------------|----------------7-----------|
 ||-----0-0-0--0-------------|-----0-0-0--0-------0-------|

Bb5 N.C.(Eb)
9/8 12/8
H. Q. H. +Q. Q.
 
 |-------------------|--------------------------|
 |-------------------|--------------------------|
 |-6-----------6S====|=15----------(15)---8S====|
 |-------------------|--------------------------|
 |-4-----------4S====|=13----------(13)---6S====|
 |-------------------|--------------------------|

|
| ~~~~
| E E E Q E E E E Q E Q. H.
 
 |-------------------|--------------------------|
 |-------------------|--------------------------|
 |-------------------|--------------------------|
 |-------------------|--------------------------|
 |-------------------|--8---8-8------6----------|
 |----0-0-0--0-0-0-0-|--6---6-6-----------------|

N.C.(E)
H. +Q. Q. H. +Q. Q.
 
 |-------------------------|----------------------------|
 |-------------------------|----------------------------|
 |-9-----------(9)-----9S==|=12-----------(12)----12S===|
 |-------------------------|----------------------------|
 |-7-----------(7)-----7S==|=10-----------(10)----10S===|
 |-------------------------|----------------------------|

|
| E E E Q q E H E E E Q E Q q Q
 
 |-------------------------|----------------------------|
 |-------------------------|----------------------------|
 |-------------------------|----------------------------|
 |-------------------------|----------------------------|
 |-------------------------|----------------7-----------|
 |----0-0-0--0-------------|-----0-0-0--0-------0-------|

1.,2.
Bb5 N.C.(Eb)
9/8 12/8
H. Q. H. +Q. Q.
 
 |-------------------|---------------------------||
 |-------------------|--------------------------o||
 |-6-----------6S====|=15----------(15)---8S=====||
 |-------------------|---------------------------||
 |-4-----------4S====|=13----------(13)---6S====o||
 |-------------------|---------------------------||

|
| ~~~~
| E E E Q E E E E Q E Q. H.
 
 |-------------------|---------------------------||
 |-------------------|--------------------------o||
 |-------------------|---------------------------||
 |-------------------|---------------------------||
 |-------------------|--8---8-8------6----------o||
 |----0-0-0--0-0-0-0-|--6---6-6------------------||

3.
12/8 6/8
H. Q Q Q +H. E E E E Q H.
 
 |--------------------------|----------------------|-------|
 |--------------------------|----------------------|-------|
 |-15-----------------------|----------------------|-------|
 |----------------------13--|-(13)-----------------|-------|
 |-13----------12---13------|-----------1---1-1----|-------|
 |--------------------------|-----------0---0-0----|-------|

|
| ~~~~~~~~~~~~~~~~~~~
| Q E Q. H. +H. E E E E Q H.
 
 |--------------------------|----------------------|-------|
 |--------------------------|----------------------|-------|
 |--------------------------|----------------------|-------|
 |--------------------------|----------------------|-------|
 |--8---8-8-----6-----------|--(6)------1---1-1----|-------|
 |--6---6-6-----------------|-----------0---0-0----|-------|

Chorus 2
Q.=130
1[Em]2/8[Bm]
Gtr I
[E] [E] [E] [E] [E] [E] [E] [E] [E] [E] [E] [E] [E] [E] [E] [E] [E] [E] [E] [E] [E] [E] [E] [E]  
 
 ||--------------------------|--------------------------|
 ||o-------------------------|--------------------------|
 ||--------------------------|--------------------------|
 ||--5p4-4-4-4-4-5p4-4-4-4-4-|-5p4-4-4-4-4-5p4-4-4-4-4--|
 ||o-------------------------|--------------------------|
 ||--------------------------|--------------------------|

|
| Gtr II
| Q E E E E Q E E E E Q E E E E Q E E E E
 
 ||--------------------------|--------------------------|
 ||o-------------------------|--------------------------|
 ||--------------------------|--------------------------|
 ||--------------------------|--------------------------|
 ||o-2---2-2-2-2-2---2-2-2-2-|-9---9-9-9-9-9---9-9-9-9--|
 ||--0---0-0-0-0-0---0-0-0-0-|-7---7-7-7-7-7---7-7-7-7--|

[D]Q E E E E Q E E E E [F#m/A]Q E E E E Q [F#/Bb]E E E E
 
 |-----------------------|------------------------||
 |-----------------------|-----------------------o||
 |-----------------------|------------------------||
 |-4--4-5-5-5-7--7-7-7-7-|-4--4-4-4-4-4--4-4-4-4--||
 |-----------------------|-----------------------o||
 |-----------------------|------------------------||

|
| Q E E E E Q E E E E Q E E E E Q E E E E
 
 |-----------------------|------------------------||
 |-----------------------|-----------------------o||
 |-----------------------|------------------------||
 |-4--4-4-4-4-4--4-4-4-4-|------------------------||
 |-5--5-5-5-5-5--5-5-5-5-|-9--9-9-9-9-9--9-9-9-9-o||
 |-----------------------|-5--5-5-5-5-6--6-6-6-6--||

[E5]Gtr II[B5]
Q E E E E Q E E E E Q E E E E Q E E E E
| | | | | | | | | | | | | | | | | | | |
[/] [/] [/] [/] [/] [/] [/] [/] [/] [/] [/] [/] [/] [/] [/] [/] [/] [/] [/] [/] 
Gtr I
[E] [E] [E] [E] [E] [E] [E] [E] [E] [E] [E] [E] [E] [E] [E] [E] [E] [E] [E] [E] [E] [E] [E] [E]  
 
 ||--------------------------|-------------------------------|
 ||o-------------------------|-------------------------------|
 ||--------------------------|-------------------------------|
 ||--------------------------|-------------------------------|
 ||o-7-7-7-7-7-7-7-7-7-7-7-7-|-10-10-10-10-10-10-------------|
 ||--------------------------|-------------------7-7-7-7-7-7-|

|
| Gtr VI
| E E E E E E E E E E E E E E E E E E E E E E E E
 
 ||--------------------------|-------------------------------|
 ||o-------------------------|-------------------------------|
 ||--------------------------|-------------------------------|
 ||--5p4-4-4-4-4-5p4-4-4-4-4-|--5p=4--4--4--4--4-5p4-4-4-4-4-|
 ||o-------------------------|-------------------------------|
 ||--------------------------|-------------------------------|

|
| Gtr V
| E E E E E E E E E E E E E E E E E E E E E E E E
 
 ||--------------------------|-------------------------------|
 ||o-------------------------|-------------------------------|
 ||--------------------------|--4--4--4--4--4--4-------------|
 ||--5p4-4-4-4-4-5p4-4-4-4-4-|-------------------------------|
 ||o-------------------------|-------------------5-5-5-5-5-5-|
 ||--------------------------|-------------------------------|

[D]Q E E E E Q E E E E [F#m/A]Q E E E E [F#/Bb] Q E E E E
| | | | | | | | | | | | | | | | | | | |
[/] [/] [/] [/] [/] [/] [/] [/] [/] [/] [/] [/] [/] [/] [/] [/] [/] [/] [/] [/] 
E E E E E E E E E E E E Q E Q. Q H 4x
 
 |-------------------------|--------------------------||
 |-------------------------|------0------------------o||
 |-------------------------|------4-------------------||
 |-------------------------|----4-4------/5--4--------||
 |-------------------------|-2-----------------------o||
 |-5-5-5-5-5-5-1-1-1-1-1-1-|--------------------------||

|
| Q E E E E Q E E E E Q E E E E Q E E E E 4x
 
 |-------------------------|--------------------------||
 |-------------------------|-------------------------o||
 |-------------------------|--------------------------||
 |-4---4-5-5-5-7---7-7-7-7-|-4--4-4--4-4--4--4-4-4-4--||
 |-------------------------|-------------------------o||
 |-------------------------|--------------------------||

|
| E E E E E E E E E E E E Q E Q. Q H 4x
 
 |-------------------------|--------------------------||
 |-------------------------|------0------------------o||
 |-------------------------|------4-------------------||
 |-------------------------|----4-4------/5--4--------||
 |-------------------------|-2-----------------------o||
 |-5-5-5-5-5-5-1-1-1-1-1-1-|--------------------------||

Breakdown 2
[Bm]Gtrs I, II
Q E Q. Q H Q E Q. Q H
 
 |--------------------|--------------------|
 |-------0------------|-------0------------|
 |-------4------------|-------4------------|
 |-----4-4----5--4----|-----4-4----5--4----|
 |-2------------------|-2------------------|
 |--------------------|--------------------|

|
| Gtr V
| H. Q H H. Q H
 
 |--------------------|--------------------|
 |--------------------|--------------------|
 |--------------------|--------------------|
 |------------5--4----|------------5--4----|
 |--------------------|--------------------|
 |--------------------|--------------------|

[Bm]Q E Q. Q H [C]H. [F#]H.
 
 |-------2-------------|---------------|
 |-------------3--2----|---------------|
 |---------------------|-5-------------|
 |-----4---------------|---------4-----|
 |-2-------------------|-0-------6-----|
 |---------------------|---------------|

|
| H. Q H H. H.
 
 |------------10--9----|-8-------------|
 |---------------------|---------7-----|
 |---------------------|---------------|
 |---------------------|---------------|
 |---------------------|---------------|
 |---------------------|---------------|

Outro
[G/E] [A/E] [Bm]  
[6/4] Gtrs I, II
Q E E E E Q Q Q Q E E E E Q E E E E
 
 ||------------------------|------------------------|
 ||o-----------------------|------------------------|
 ||--4--4-4-4-4-4--4---6---|-7---7-7-7-7-7--7-7-7-7-|
 ||--5--5-5-5-5-5--5---7---|-9---9-9-9-9-9--9-9-9-9-|
 ||o-----------------------|------------------------|
 ||------------------------|------------------------|

|
| Gtrs V, VI
| Q E E E E Q E E E E E E Q E E Q E E E E
 
 ||------------------------|------------------------|
 ||o-----------------------|------------------------|
 ||------------------------|------------------------|
 ||------------------------|------------------------|
 ||o------------7----------|------------------------|
 ||--0--0-0-0-0----0-0-0-0-|-2h3-5---0h2-3--3-3-3-3-|

Q E E E E Q E E E E [Em]Q E E E E Q E E E E 9x
 
 |------------------------|-7---7-7-7-7-5--5-5-5-5--||
 |------------------------|-7---7-7-7-7-5--5-5-5-5-o||
 |-7---7-7-7-7-7--7-7-7-7-|-7---7-7-7-7-6--6-6-6-6--||
 |-9---9-9-9-9-9--9-9-9-9-|-------------------------||
 |------------------------|------------------------o||
 |------------------------|-------------------------||

|
| W. W. 9x
 
 |------------------------|-------------------------||
 |------------------------|------------------------o||
 |-4----------------------|-2-----------------------||
 |-4----------------------|-2-----------------------||
 |-2----------------------|-0----------------------o||
 |------------------------|-------------------------||

Performance Notes
 
 -----------------

The acoustics are completely buried in the mix, especially the rhythm part at measure
65-66, so it's sort of approximated. It's definitely close, though. The outro is also
layered with 4 guitars, but I'm pretty sure I got it. Distorted chords are generally
impossible to be sure on when you're dealing with later Opeth, too....
Duration Legend
 
 ---------------
 W - whole; H - half; Q - quarter; E - 8th; S - 16th; T - 32nd; X - 64th; a - acciaccatura

+ - note tied to previous; . - note dotted; .. - note double dotted
Uncapitalized letters represent notes that are staccato (1/2 duration)
Irregular groupings are notated above the duration line
Duration letters will always appear directly above the note/fret number it represents the
duration for. Duration letters with no fret number below them represent rests. Multi-
bar rests are notated in the form Wxn, where n is the number of bars to rest for. Low
melody durations appear below the staff
Tablature Legend
 
 ----------------

h - hammer-on
p - pull-off
b - bend
pb - pre-bend
r - bend release (if no number after the r, then release immediately)
/\ - slide into or out of (from/to "nowhere")
s - legato slide
S - shift slide
<n> - natural harmonic
(n) - artificial harmonic
n(n) - tapped harmonic
~ - vibrato
tr - trill
T - tap
TP - trem. picking
PM - palm muting
\n/ - tremolo bar dip; n = amount to dip
\n - tremolo bar down
n/ - tremolo bar up
/n\ - tremolo bar inverted dip
= - hold bend; also acts as connecting device for hammers/pulls
<> - volume swell (louder/softer)
x - on rhythm slash represents muted slash
o - on rhythm slash represents single note slash
Misc Legend
 
 -----------

| - bar
|| - double bar
||o - repeat start
o|| - repeat end
*| - double bar (ending)
: - bar (freetime)
$ - Segno
& - Coda
Tempo markers - <E/E./Q/Q./H/H.> = BPM(8/16=s8/s16), where s8 = swing 8ths, s16 = swing
16ths

Important: The song above is NOT stored on the Chordie server. The original song is hosted at www.xguitar.com. Chordie works as a search engine and provides on-the-fly formatting. Chordie does not index songs against artists'/composers' will. To remove this song please click here.

Text color:
Chord color:
Chord grids: 
Font size:    
Page size: 

A/E A5 Ab5 Am Amaj7/D Asus2 B5 Bm Bsus2 C Cmaj7 D D#m Dm Dsus2 Dsus2/E E E/F# E5 E5/B E5/C Eb5 Em Esus2 F# F#m F#m/A F5/E G G#6 G/E G6
Rate #1 of 1 versions

Jango Player

Login - add to songbook

SHARE PAGE  




You need to log in to post comments