Guitar Tabs, Chords and Lyrics
Major upgrade!! After one year development the new version of Chordie is now online! Please give feedback.


Demon of the Fall  Opeth

As recorded by Opeth
From the 1998 Album MY ARMS, YOUR HEARSE
Words by Mikael Åkerfeldt
Music by Opeth
Gtr I (D A D G B E) - 'Guitar 1'
Gtr II (D A D G B E) - 'Guitar 2'
Gtr III (D A D G B E) - 'Acoustic 1'
Gtr IV (D A D G B E) - 'Acoustic 2'
Gtr V (D A D G B E) - 'Guitar 3'
Gtr VI (D A D G B E) - 'Untitled'
All Drop D
Intro
Q.=68
6[D]/8[D/A] [D/Ab]
Gtr I
PM----|
E S S S S E S S S S E S S S S E S S S S S S E S S E S S S S
 
 ||----------------------|---------------------|---------------------|
 ||o---------------------|---------------------|---------------------|
 ||--7-7-7-7-7-7-7-7-7-7-|-7-7-7-7-7-7-7-7-7-7-|---------------------|
 ||----------------------|---------------------|---------------------|
 ||o-5-5-5-5-5-5-5-5-5-5-|-5-5-5-5-5-5-5-5-5-5-|-----6-3s5-5---------|
 ||--0-0-0-0-0-7-7-7-7-7-|-6-6-6-6-6-6-6-6-6-6-|-6h8---------0-0-0-0-|

|
| Gtr II
| PM----|
| E S S S S E S S S S E S S S S E S S S S S S E S S E S S S S
 
 ||----------------------|---------------------|---------------------|
 ||o---------------------|---------------------|---------------------|
 ||--7-7-7-7-7-7-7-7-7-7-|-7-7-7-7-7-7-7-7-7-7-|---------------------|
 ||----------------------|---------------------|---------------------|
 ||o-5-5-5-5-5-5-5-5-5-5-|-5-5-5-5-5-5-5-5-5-5-|-----6-3s5-5---------|
 ||--0-0-0-0-0-7-7-7-7-7-|-6-6-6-6-6-6-6-6-6-6-|-6h8---------0-0-0-0-|

1.,2.,3. 4.
3[Ab]/8
PM|
S S E S S S S E S S H. S e e S
 
 |----------------------||---------|------------|
 |---------------------o||---------|------------|
 |----------------------||---------|------------|
 |----------------------||---------|-6-1-1-1----|
 |-----6-6h8-9-8-6-----o||---------|-6-1-1-1----|
 |-6h8-------------0-0--||---------|-6-1-1-1----|

|
| PM|
| S S E S S S S E S S H. S e e S
 
 |----------------------||---------|------------|
 |---------------------o||---------|------------|
 |----------------------||---------|------------|
 |----------------------||---------|-6-1-1-1----|
 |-----6-6h8-9-8-9-----o||---------|-6-1-1-1----|
 |-6h8-------------0-0--||---------|-6-1-1-1----|

Verse 1
6[Bm]/8[C#m] [Dm]
E S S S S E S S S S S S S S S S E S S S S
 
 ||---------------------------|----------------------------------|
 ||o--------------------------|----------------------------------|
 ||---4--4--4--4--4-6-6-6-6-6-|-6s=7---7--7--7--7--7--7--7--7--7-|
 ||---------------------------|----------------------------------|
 ||o--2--2--2--2--2-4-4-4-4-4-|-4s=5---5--5--5--5--5--5--5--5--5-|
 ||---0--0--0--0--0-0-0-0-0-0-|-0-(0)--0--0--0--0--0--0--0--0--0-|

|
| E S S S S E S S S S S S S S S S E S S S S
 
 ||---------------------------|----------------------------------|
 ||o--------------------------|----------------------------------|
 ||--14-14-14-14-14-9-9-9-9-9-|-9s10--10-10-10-10-10-10-10-10-10-|
 ||---------------------------|----------------------------------|
 ||o-12-12-12-12-12-7-7-7-7-7-|-7s=8---8--8--8--8--8--8--8--8--8-|
 ||---0--0--0--0--0-0-0-0-0-0-|-0-(0)--0--0--0--0--0--0--0--0--0-|

E S S S S [A5] E S S S S S [F] S S S S S E S S S S
 
 |-------------------------------|-------------------------------------|
 |-------------------------------|-------------------------------------|
 |--7--7--7--7--7--9--9--9--9--9-|--9s10--10-10-10-10-10-10-10-10-10---|
 |-------------------------------|-------------------------------------|
 |--5--5--5--5--5--7--7--7--7--7-|--7s=8---8--8--8--8--8--8--8--8--8---|
 |--0--0--0--0--0--0--0--0--0--0-|--0-(0)--0--0--0--0--0--0--0--0--0---|

|
| E S S S S E S S S S E S S S S E S S S S
 
 |-------------------------------|-------------------------------------|
 |-------------------------------|-------------------------------------|
 |-10-10-10-10-10-14-14-14-14-14-|-14-----14-14-14-14-14-14-14-14-14---|
 |-------------------------------|-------------------------------------|
 |--8--8--8--8--8-12-12-12-12-12-|-12-----12-12-12-12-12-12-12-12-12---|
 |--0--0--0--0--0--0--0--0--0--0-|--0------0--0--0--0--0--0--0--0--0---|

E S S S S [G] E S S S S S S [A5] S S S S E S S S S
 
 |-------------------------------|-----------------------------------|
 |-------------------------------|-----------------------------------|
 |-10-10-10-10-10-12-12-12-12-12-|-12s14--14-14-14-14-14-14-14-14-14-|
 |-------------------------------|-----------------------------------|
 |--8--8--8--8--8-10-10-10-10-10-|-10s12--12-12-12-12-12-12-12-12-12-|
 |--0--0--0--0--0--0--0--0--0--0-|--0-(0)--0--0--0--0--0--0--0--0--0-|

|
| E S S S S E S S S S E S S S S E S S S S
 
 |-------------------------------|-----------------------------------|
 |-------------------------------|-----------------------------------|
 |-14-14-14-14-14--7--7--7--7--7-|-10------9--9--9--9--9--9--9--9--9-|
 |-------------------------------|-----------------------------------|
 |-12-12-12-12-12--5--5--5--5--5-|--8------7--7--7--7--7--7--7--7--7-|
 |--0--0--0--0--0--0--0--0--0--0-|--0------0--0--0--0--0--0--0--0--0-|

[G#] E S S S S [G] E S S S S [F] E [Dm] S S S S E S S S S 4x
 
 |-------------------------------|----------------------------------||
 |-------------------------------|---------------------------------o||
 |-13-13-13-13-13-12-12-12-12-12-|-10-10-10-10-10-10-10-10-10-10----||
 |-------------------------------|----------------------------------||
 |-11-11-11-11-11-10-10-10-10-10-|--8--8--8--8--8--8--8--8--8--8---o||
 |--0--0--0--0--0--0--0--0--0--0-|--0--0--0--0--0--0--0--0--0--0----||

|
| E S S S S E S S S S E S S S S E S S S S 4x
 
 |-------------------------------|----------------------------------||
 |-------------------------------|---------------------------------o||
 |-13-13-13-13-13-12-12-12-12-12-|-10--7--7--7--7--7--7--7--7--7----||
 |-------------------------------|----------------------------------||
 |-11-11-11-11-11-10-10-10-10-10-|--8--5--5--5--5--5--5--5--5--5---o||
 |--0--0--0--0--0--0--0--0--0--0-|--0--0--0--0--0--0--0--0--0--0----||

Verse 2
1.,2.,3.
[Eb5] [D5] [Eb5] [Ab5] [Eb5] [D5] [D] [GsuFsus2]  
 
 PM--| ~~~~~~~ PM--| PM----|

E E E S E E S E S S S S Q +S S E E E S E E S E. E. E S S S S
 
 ||----------------|--------------------|---------------|------------------||
 ||o---------------|--------------------|---------------|-----------------o||
 ||----------------|--------------------|---------------|-7--7--5----------||
 ||--1-1-1-1p0-0-0-|--------------------|-1-1-1-1p0-0-0-|-7--7--5----------||
 ||o-1-1-1-1p0-0-0-|--------------------|-1-1-1-1p0-0-0-|-5--5--3-3-3-3-3-o||
 ||--1-1-1-1p0-0-0-|-1-2S3S4S5S6--(6)-x-|-1-1-1-1p0-0-0-|-0--5--3-3-3-3-3--||

|
 
 | PM--| ~~~~~~~ PM--| PM--|

| E E E S E E S E S S S S Q +S S E E E S E E S E. E. E S S E
 
 ||----------------|--------------------|---------------|------------------||
 ||o---------------|--------------------|---------------|-----------------o||
 ||--8-8-8-8p7-7-7-|--------------------|-8-8-8-8p7-7-7-|-7--7--5----------||
 ||--8-8-8-8p7-7-7-|--------------------|-8-8-8-8p7-7-7-|-7--7--5----------||
 ||o-6-6-6-6p5-5-5-|--------------------|-6-6-6-6p5-5-5-|-5--5--3-3-3-3---o||
 ||----------------|-1-2S3S4S5S6--(6)-x-|---------------|-0--5--3-3-3-3----||

Pre-Chorus
4. Q=112
[D5] [GsuFsus2] 12/8 4[Dm]/4
Gtrs I, II
>
E. E. Q. +W. +W
 
 |-------------|-------------------||------------------------------------|
 |-------------|-------------------||o-----------------------------------|
 |-7--7--5-----|-(5)---------------||--(5)-------------------------------|
 |-7--7--5-----|-(5)---------------||--(5)-------------------------------|
 |-5--5--3-----|-(3)---------------||o-(3)-------------------------------|
 |-0--5--3-----|-(3)---------------||--(3)-------------------------------|

|
| Gtr III
| H. W Q. E E S S S S S S S S S S S S S S
 
 |-------------|-------------------||------------------------------------|
 |-------------|-------------------||o-10--10-10-------------------------|
 |-------------|-------------------||---7---7--7-----------------5s7-----|
 |-------------|-------------------||---7---7--7-------------------------|
 |-------------|-----------------0-||o---------------------------3s5-----|
 |-------------|-----------------0-||------------0-0-3p0-0-0-0-0-----0-0-|

W
 
 |----------------------------------|
 |----------------------------------|
 |----------------------------------|
 |----------------------------------|
 |----------------------------------|
 |----------------------------------|

|
| E S S S S S S S S S S S S S S
 
 |----------------------------------|
 |-9-9-9----------------------------|
 |-7-7-7-----------------5s7--------|
 |-7-7-7----------------------------|
 |-----------------------3s5--------|
 |-------0-0-3p0-0-0-0-0-----0-0----|

1.
W W
 
 |----------------------------------|----------------------------------------||
 |----------------------------------|---------------------------------------o||
 |----------------------------------|----------------------------------------||
 |----------------------------------|----------------------------------------||
 |----------------------------------|---------------------------------------o||
 |----------------------------------|----------------------------------------||

|
| S S S S S S S S S S S S S S S S S S S S S S S S S S S S S S S S
 
 |----------------------------------|----------------------------------------||
 |-8-8-8----------------------------|---------------------------------------o||
 |-7-7-7-10-----------------5s7-----|-9s10-10-10-----12s9-9-9-----15-15-x-x--||
 |-7-7-7--7-------------------------|----------------------------------------||
 |--------------------------3s5-----|-7s=8--8--8-----10s7-7-7-----13-13-x-x-o||
 |----------0-0-3p0-0-0-0-0-----0-0-|-0-----0--0-0-0--0---0-0-0-0--0--0-x-x--||

2.
H Q E E
 
 |-----------------------------------|
 |-----------------------------------|
 |-----------------------------------|
 |-----------------------------------|
 |-----------------------------------|
 |--------------------------------0--|

|
| S S S S S S S S S S S S E E
 
 |-----------------------------------|
 |-----------------------------------|
 |-9s10-10-10-----12s9-9-9-----15----|
 |-----------------------------------|
 |-7s=8--8--8-----10s7-7-7-----13----|
 |-0-----0--0-0-0--0---0-0-0-0--0----|

Chorus
[4/4]  
 
 PM| PM----| PM| PM| PM----| PM|

E S S S S S S S S S S S S S S E S S S S S S S S S S S S S S
 
 ||-----------------------------------|--------------------------------|
 ||o-10-10-10-------------------------|-9-9-9--------------------------|
 ||---7--7--7-----------------5s7-----|-7-7-7-----------------5s7------|
 ||---7--7--7-------------------------|-7-7-7--------------------------|
 ||o--------------------------3s5-----|-----------------------3s5------|
 ||-----------0-0-3p0-0-0-0-0-----0-0-|-------0-0-3p0-0-0-0-0-----0-0--|

PM| PM----| PM| PM|
S S S S S S S S S S S S S S S S S S S S S S S S S S S S S S S S
 
 |----------------------------------|-----------------------------------------||
 |-8-8-8----------------------------|----------------------------------------o||
 |-7-7-7-10-----------------5s7-----|-9s10-10-10-----12s9-9-9-----15-15-x-x---||
 |-7-7-7--7-------------------------|-----------------------------------------||
 |--------------------------3s5-----|-7s=8--8--8-----10s7-7-7-----13-13-x-x--o||
 |----------0-0-3p0-0-0-0-0-----0-0-|-0-----0--0-0-0--0---0-0-0-0--0--0-x-x---||
 PM| PM----| PM| PM| PM----| PM|

E S S S S S S S S S S S S S S E S S S S S S S S S S S S S S
 
 ||-----------------------------------|-------------------------------|
 ||o-10-10-10-------------------------|-9-9-9-------------------------|
 ||---7--7--7-----------------5s7-----|-7-7-7-----------------5s7-----|
 ||---7--7--7-------------------------|-7-7-7-------------------------|
 ||o--------------------------3s5-----|-----------------------3s5-----|
 ||-----------0-0-3p0-0-0-0-0-----0-0-|-------0-0-3p0-0-0-0-0-----0-0-|

Gtr I
PM| PM----| PM|
S S S S S S S S S S S S S S S S S S S S S S S S S S S S S S S S
 
 |----------------------------------|----------------------------------------||
 |-8-8-8----------------------------|---------------------------------------o||
 |-7-7-7-10-----------------5s7-----|-5s=7--7--7------8s5-5-5------8--8-x-x--||
 |-7-7-7--7-------------------------|----------------------------------------||
 |--------------------------3s5-----|-3s=5--5--5------6s3-3-3------6--6-x-x-o||
 |----------0-0-3p0-0-0-0-0-----0-0-|-0-----0--0-0-0--0---0-0-0-0--0--0-x-x--||

|
| Gtr II
| PM| PM----| PM|
| S S S S S S S S S S S S S S S S S S S S S S S S S S S S S S S S
 
 |----------------------------------|----------------------------------------||
 |-8-8-8----------------------------|---------------------------------------o||
 |-7-7-7-10-----------------5s7-----|-9s10-10-10-----12s9-9-9-----15-15-x-x--||
 |-7-7-7--7-------------------------|----------------------------------------||
 |--------------------------3s5-----|-7s=8--8--8-----10s7-7-7-----13-13-x-x-o||
 |----------0-0-3p0-0-0-0-0-----0-0-|-0-----0--0-0-0--0---0-0-0-0--0--0-x-x--||

|
| Gtr IV
| W W
 
 |----------------------------------|----------------------------------------||
 |----------------------------------|---------------------------------------o||
 |----------------------------------|----------------------------------------||
 |----------------------------------|----------------------------------------||
 |----------------------------------|---------------------------------------o||
 |----------------------------------|----------------------------------------||

Break
Q.=72
6/8
H. Q. E. S S S
 
 |--------------------------|-----------------------------|
 |--------------------------|-----------------------------|
 |--------------------------|---------------------6s7-----|
 |--------------------------|-----------------------------|
 |--------------------------|---------------------4s5-----|
 |--------------------------|-------------------------3---|

|
| H. Q. E. S S S
 
 |--------------------------|-----------------------------|
 |--------------------------|-----------------------------|
 |--------------------------|-----------------------------|
 |--------------------------|-----------------------------|
 |--------------------------|---------------------4-5-----|
 |--------------------------|-------------------------3---|

|
| Gtrs III, IV
| S S S S S S S S S S S S S S S S S S S S S E.
 
 |--------------------------|-----------------------------|
 |--------------------------|-----------------------------|
 |--------------------------|-----------------------------|
 |------4---4-------4---4---|------4---4--------4---------|
 |----0---0---0---0---0---0-|----0---0---0----0-----------|
 |-4------------4-----------|-4------------4--------------|

Verse 3
[D5]E S S S S [D]E S S S S S [C#]S S S S S [D7]E S S S S
 
 ||----------------------|------------------------|
 ||o---------------------|------------------------|
 ||------------7-7-7-7-7-|-7s6-6-6-6---5-5-5--5-5-|
 ||--0-0-0-0-0-----------|-------------0-0-0--0-0-|
 ||o-0-0-0-0-0-5-5-5-5-5-|-5s4-4-4-4---0-0-0--0-0-|
 ||--0-0-0-0-0-----------|-----------0-0-0-0--0-0-|

|
| E S S S S E S S S S S S S S S S E S E.
 
 ||----------------------|------------------------|
 ||o---------------------|------------------------|
 ||------------7-7-7-7-7-|-7s6-6-6-6---5-5-5------|
 ||--0-0-0-0-0-----------|-------------0-0-0------|
 ||o-0-0-0-0-0-5-5-5-5-5-|-5s4-4-4-4---0-0-0------|
 ||--0-0-0-0-0-----------|-----------0-0-0-0------|

[G#m]E E E S S S E S E E E E E E 4x
 
 |-----------------|----------------||
 |-----------------|---------------o||
 |-----------------|----------------||
 |-----------------|--7-6-----------||
 |-------------7-8-|------5-8-7-5--o||
 |-7-6-0-6h7-7-----|----------------||

|
| E E E S S S E S E E E E E E 4x
 
 |-----------------|----------------||
 |-----------------|---------------o||
 |-----------------|----------------||
 |-----------------|-10-9-7-6-5-----||
 |-------------7-8-|------------8--o||
 |-7-6-0-6h7-7-----|----------------||

Build-up
Q.=68
[Bbm]E S S S S [Ab5] E S S S S E [C]S S S S E S S S S
 
 ||------------------------------|-----------------------|
 ||o-----------------------------|-----------------------|
 ||--6-6-6-6-6-/13---13-13-13-13-|-5---5-5-5-5-5-5-5-5-5-|
 ||------------------------------|-----------------------|
 ||o-4-4-4-4-4-/11---11-11-11-11-|-3---3-3-3-3-3-3-3-3-3-|
 ||------------------------------|-----------------------|

|
| E S S S S S S S S S S S S S S S S E S S S S
 
 ||------------------------------|-----------------------|
 ||o-----------------------------|-----------------------|
 ||--3-3-3-3-3---3s8--8--8--8--8-|-8s9-9-9-9-9-9-9-9-9-9-|
 ||------------------------------|-----------------------|
 ||o-1-1-1-1-1---1s6--6--6--6--6-|-6s7-7-7-7-7-7-7-7-7-7-|
 ||------------------------------|-----------------------|

1.
[Bbm]E S S S S [Ab5] E S S S S [Em] S S E S S E S S S S
 
 |----------------------------|-----------------------------------||
 |----------------------------|----------------------------------o||
 |-6-6-6-6-6-13---13-13-13-13-|-12s13s12---12-12-12-12-12-12-12---||
 |----------------------------|-----------------------------------||
 |-4-4-4-4-4-11---11-11-11-11-|-10s11s10---10-10-10-10-10-10-10--o||
 |----------------------------|-----------------------------------||

|
| E S S S S S S S S S S S S S S S S E S S S S
 
 |----------------------------|-----------------------------------||
 |----------------------------|----------------------------------o||
 |-3-3-3-3-3--3s8--8--8--8--8-|--8s=9--9-9--9--9--9--9--9--9--9---||
 |----------------------------|-----------------------------------||
 |-1-1-1-1-1--1s6--6--6--6--6-|--6s=7--7-7--7--7--7--7--7--7--7--o||
 |----------------------------|-----------------------------------||

2.
[Bbm]E S S S S [Ab5] E S S S S
 
 |-----------------------------|
 |-----------------------------|
 |-6-6-6-6-6-/13---13-13-13-13-|
 |-----------------------------|
 |-4-4-4-4-4-/11---11-11-11-11-|
 |-----------------------------|

|
| E S S S S S S S S S S
 
 |-----------------------------|
 |-----------------------------|
 |-3-3-3-3-3---3s8--8--8--8--8-|
 |-----------------------------|
 |-1-1-1-1-1---1s6--6--6--6--6-|
 |-----------------------------|

[C] E S S S S [Em] E S S S S [Abb5]E E E E E E H.
 
 |------------------------------|-------------|-------|
 |------------------------------|-9-9-9-9-9-9-|-------|
 |-\5---5-5-5-5-/12-12-12-12-12-|-7-7-7-7-7-7-|-------|
 |------------------------------|-6-6-6-6-6-6-|-------|
 |-\3---3-3-3-3-/10-10-10-10-10-|-------------|-------|
 |------------------------------|-------------|-------|

|
| S S S S S S E S S S S E E E E E E H.
 
 |------------------------------|-------------|-------|
 |------------------------------|-9-9-9-9-9-9-|-------|
 |--8s9-9-9-9-9---9--9--9--9--9-|-7-7-7-7-7-7-|-------|
 |------------------------------|-6-6-6-6-6-6-|-------|
 |--6s7-7-7-7-7---7--7--7--7--7-|-------------|-------|
 |------------------------------|-------------|-------|

Release
[E]Gtrs III, IV [Dm]Gtrs I, II[G#]
E E E E E E E E E E E E 8x S E E S S E E S Q. E Q
 
 ||--0-----------|-0------------||-----------------|------------|
 ||o---4-------4-|---4-------4-o||-----------------|------------|
 ||------0---0---|-----0---0----||-----------------|------------|
 ||--------4-----|-------4------||-----------------|------6-----|
 ||o-------------|-------------o||-5-4---------5---|------6-----|
 ||--------------|--------------||-----0-0-2-3---5-|-6----6-----|

Outro
[Gm]Gtr I[Dm] [Dm7]
E S S S S E S S S S E S S S S E S S S S
 
 ||----------------------|--------------------------------|
 ||o---------------------|--------------------------------|
 ||----------------------|--------------------------------|
 ||--8-8-8-8-8-8-8-8-8-8-|---7--7--7--7--7-10-10-10-10-10-|
 ||o-5-5-5-5-5-5-5-5-5-5-|---8--8--8--8--8--8--8--8--8--8-|
 ||--5-5-5-5-5-5-5-5-5-5-|---0--0--0--0--0--0--0--0--0--0-|

|
| Gtr II
| E S S S S E S S S S E S S S S E S S S S
 
 ||----------------------|--------------------------------|
 ||o---------------------|--------------------------------|
 ||--7-7-7-7-7-7-7-7-7-7-|-/14-14-14-14-14--7--7--7--7--7-|
 ||--8-8-8-8-8-8-8-8-8-8-|--------------------------------|
 ||o-5-5-5-5-5-5-5-5-5-5-|-/12-12-12-12-12--5--5--5--5--5-|
 ||--5-5-5-5-5-5-5-5-5-5-|--------------------------------|

[Asus2]E S S S S E S S S S E S S S S E S S S S
 
 |-----------------------|-----------------------|
 |-----------------------|-----------------------|
 |-----------------------|-----------------------|
 |-9---9-9-9-9-9-9-9-9-9-|-9-9-9-9-9-9-9-9-9-9---|
 |-7---7-7-7-7-7-7-7-7-7-|-7-7-7-7-7-7-7-7-7-7---|
 |-7---7-7-7-7-7-7-7-7-7-|-7-7-7-7-7-7-7-7-7-7---|

|
| S S S S S S E S S S S E S S S S E S S S S
 
 |-----------------------|-----------------------|
 |-----------------------|-----------------------|
 |-7s9-9-9-9-9-9-9-9-9-9-|-9-9-9-9-9-9-9-9-9-9---|
 |-----------------------|-----------------------|
 |-5s7-7-7-7-7-7-7-7-7-7-|-7-7-7-7-7-7-7-7-7-7---|
 |-----------------------|-----------------------|

[Gm]E S S S S E S S S S [Dm] E S S S S [Dm7] E S S S S
 
 |---------------------|--------------------------------|
 |---------------------|--------------------------------|
 |---------------------|--------------------------------|
 |-8-8-8-8-8-8-8-8-8-8-|---7--7--7--7--7-10-10-10-10-10-|
 |-5-5-5-5-5-5-5-5-5-5-|---8--8--8--8--8--8--8--8--8--8-|
 |-5-5-5-5-5-5-5-5-5-5-|---0--0--0--0--0--0--0--0--0--0-|

|
| E S S S S E S S S S E S S S S E S S S S
 
 |---------------------|--------------------------------|
 |---------------------|--------------------------------|
 |-7-7-7-7-7-7-7-7-7-7-|-/14-14-14-14-14-14-14-14-14-14-|
 |-8-8-8-8-8-8-8-8-8-8-|--------------------------------|
 |-5-5-5-5-5-5-5-5-5-5-|-/12-12-12-12-12-12-12-12-12-12-|
 |-5-5-5-5-5-5-5-5-5-5-|--------------------------------|

[Asus2] E S S S S E S S S S E S S S S E S S S S
 
 |----------------------|-----------------------||
 |----------------------|----------------------o||
 |----------------------|-----------------------||
 |--9-9-9-9-9-9-9-9-9-9-|-9-9-9-9-9-9-9-9-9-9---||
 |--7-7-7-7-7-7-7-7-7-7-|-7-7-7-7-7-7-7-7-7-7--o||
 |--7-7-7-7-7-7-7-7-7-7-|-7-7-7-7-7-7-7-7-7-7---||

|
| E S S S S E S S S S E S S S S E S S S S
 
 |----------------------|-----------------------||
 |----------------------|----------------------o||
 |-\9-9-9-9-9-9-9-9-9-9-|-9-9-9-9-9-9-9-9-9-9---||
 |----------------------|-----------------------||
 |-\7-7-7-7-7-7-7-7-7-7-|-7-7-7-7-7-7-7-7-7-7--o||
 |----------------------|-----------------------||

6[Gsus2]/8[Bbsus2]
Gtrs I, II
E S S S S E S S S S E S S S S E S S S S
 
 ||--------------------------|------------------------------------|
 ||o-------------------------|------------------------------------|
 ||--------------------------|------------------------------------|
 ||---7--7-7-7-7--7--7-7-7-7-|-10-10-10----10-10--10--10-10-10-10-|
 ||o--5--5-5-5-5--5--5-5-5-5-|--8--8--8-----8--8---8---8--8--8--8-|
 ||---5--5-5-5-5--5--5-5-5-5-|--8--8--8-----8--8---8---8--8--8--8-|

|
| Gtr V
| E E E +Q. E E a E +Q.
 
 ||--------------------------|------------------------------------|
 ||o-------------------------|------------------------------------|
 ||--14-12---7---(7)---------|-10-12----12s14----(14)-------------|
 ||--------------------------|------------------------------------|
 ||o-12-10---5---(5)---------|--8-10----10s12----(12)-------------|
 ||--------------------------|------------------------------------|

[Fsus2] E S S S S E S S S S [Dsus4] E S S S S E S S S S 4x
 
 |------------------------------|-------------------------------||
 |------------------------------|------------------------------o||
 |------------------------------|-------------------------------||
 |--5--5-5-----5-5---5--5-5-5-5-|--5--5-5----5-5--5--5-5-5-5----||
 |--3--3-3-----3-3---3--3-3-3-3-|--5--5-5----5-5--5--5-5-5-5---o||
 |--3--3-3-----3-3---3--3-3-3-3-|--0--0-0----0-0--0--0-0-0-0----||

|
| E E a E +Q. E E a E +Q. 4x
 
 |------------------------------|-------------------------------||
 |------------------------------|------------------------------o||
 |-17-12---12s14---(14)---------|-12-10---10S9---(9)------------||
 |------------------------------|-------------------------------||
 |-15-10---10s12---(12)---------|-10--8----8s7---(7)-----------o||
 |------------------------------|-------------------------------||

Gtrs I, II
E S S S S E S S S S E S S S S E S S S S
 
 ||---------------------------|------------------------------------|
 ||o--------------------------|------------------------------------|
 ||---------------------------|------------------------------------|
 ||----7--7-7-7-7--7--7-7-7-7-|-10-10-10----10-10--10--10-10-10-10-|
 ||o---5--5-5-5-5--5--5-5-5-5-|--8--8--8-----8--8---8---8--8--8--8-|
 ||----5--5-5-5-5--5--5-5-5-5-|--8--8--8-----8--8---8---8--8--8--8-|

|
| Gtrs V, VI
| E E E +Q. E E a E +Q.
 
 ||---------------------------|------------------------------------|
 ||o--------------------------|------------------------------------|
 ||--/14-12---7---(7)---------|-10-12----12s14----(14)-------------|
 ||---------------------------|------------------------------------|
 ||o-/12-10---5---(5)---------|--8-10----10s12----(12)-------------|
 ||---------------------------|------------------------------------|

E S S S S E S S S S E S S S S E S S S S
 
 |------------------------------|-----------------------------||
 |------------------------------|----------------------------o||
 |------------------------------|-----------------------------||
 |--5--5-5-----5-5---5--5-5-5-5-|--5--5-5----5-5--5--5-5-5-5--||
 |--3--3-3-----3-3---3--3-3-3-3-|--5--5-5----5-5--5--5-5-5-5-o||
 |--3--3-3-----3-3---3--3-3-3-3-|--0--0-0----0-0--0--0-0-0-0--||

|
| E E a E +Q. E E a E +Q.
 
 |------------------------------|-----------------------------||
 |------------------------------|----------------------------o||
 |-17-12---12s14---(14)---------|-12-10---10S9---(9)----------||
 |------------------------------|-----------------------------||
 |-15-10---10s12---(12)---------|-10--8----8s7---(7)---------o||
 |------------------------------|-----------------------------||

[Gsus2]Gtrs I, II[Bbsus2]
E S S S S E S S S S E S S S S E S S S S
 
 |-----------------------------|----------------------------------------|
 |-----------------------------|----------------------------------------|
 |-----------------------------|----------------------------------------|
 |---7---7-7-7-7---7---7-7-7-7-|-10--10-10----10-10--10--10-10----10-10-|
 |---5---5-5-5-5---5---5-5-5-5-|--8---8--8-----8--8---8---8--8-----8--8-|
 |---5---5-5-5-5---5---5-5-5-5-|--8---8--8-----8--8---8---8--8-----8--8-|

|
| Gtr V
| E E E +Q. E E a E +Q.
 
 |-----------------------------|----------------------------------------|
 |-----------------------------|----------------------------------------|
 |-/14--12---7----(7)----------|-10--12----12s14----(14)----------------|
 |-----------------------------|----------------------------------------|
 |-/12--10---5----(5)----------|--8--10----10s12----(12)----------------|
 |-----------------------------|----------------------------------------|

|
| Gtr VI
| Q. E E E +Q. E E a E
 
 |-----------------------------|----------------------------------------|
 |-----------------------------|----------------------------------------|
 |---------------/14--12---7---|-(7)-----------------10--12----12s14----|
 |-----------------------------|----------------------------------------|
 |---------------/12--10---5---|-(5)------------------8--10----10s12----|
 |-----------------------------|----------------------------------------|

[Fsus2] E S S S S E S S S S [Dsus4] E S S S S E S S S S
 
 |-------------------------------------|-----------------------------------|
 |-------------------------------------|-----------------------------------|
 |-------------------------------------|-----------------------------------|
 |---5---5-5-----5-5---5---5-5-----5-5-|---5---5-5----5-5--5---5-5----5-5--|
 |---3---3-3-----3-3---3---3-3-----3-3-|---5---5-5----5-5--5---5-5----5-5--|
 |---3---3-3-----3-3---3---3-3-----3-3-|---0---0-0----0-0--0---0-0----0-0--|

|
| E E a E +Q. E E a E +Q.
 
 |-------------------------------------|-----------------------------------|
 |-------------------------------------|-----------------------------------|
 |--17--12---12s14---(14)--------------|--12--10---10S9---(9)--------------|
 |-------------------------------------|-----------------------------------|
 |--15--10---10s12---(12)--------------|--10---8----8s7---(7)--------------|
 |-------------------------------------|-----------------------------------|

|
| +Q. E E a E +Q. E E a E
 
 |-------------------------------------|-----------------------------------|
 |-------------------------------------|-----------------------------------|
 |-(14)---------------17--12---12s14---|-(14)-------------12--10---10S9----|
 |-------------------------------------|-----------------------------------|
 |-(12)---------------15--10---10s12---|-(12)-------------10---8----8s7----|
 |-------------------------------------|-----------------------------------|

[Gsus2] E S S S S E S S S S [Bbsus2] E S S S S E S S S S
 
 |----------------------------|----------------------------------------|
 |----------------------------|----------------------------------------|
 |----------------------------|----------------------------------------|
 |--7---7-7-7-7---7---7-7-7-7-|-10--10-10----10-10--10--10-10----10-10-|
 |--5---5-5-5-5---5---5-5-5-5-|--8---8--8-----8--8---8---8--8-----8--8-|
 |--5---5-5-5-5---5---5-5-5-5-|--8---8--8-----8--8---8---8--8-----8--8-|

|
| E E E +Q. E E a E +Q.
 
 |----------------------------|----------------------------------------|
 |----------------------------|----------------------------------------|
 |-14--12---7----(7)----------|-10--12----12s14----(14)----------------|
 |----------------------------|----------------------------------------|
 |-12--10---5----(5)----------|--8--10----10s12----(12)----------------|
 |----------------------------|----------------------------------------|

|
| +Q. E E E +Q. E E a E
 
 |----------------------------|----------------------------------------|
 |----------------------------|----------------------------------------|
 |-(9)----------/14--12---7---|-(7)-----------------10--12----12s14----|
 |----------------------------|----------------------------------------|
 |-(7)----------/12--10---5---|-(5)------------------8--10----10s12----|
 |----------------------------|----------------------------------------|

[Fsus2] E S S S S E S S S S [Dsus4] E S S S S E S S S S
 
 |-------------------------------------|--------------------------------|
 |-------------------------------------|--------------------------------|
 |-------------------------------------|--------------------------------|
 |---5---5-5-----5-5---5---5-5-----5-5-|--5--5-5-----5-5---5--5-5-5-5---|
 |---3---3-3-----3-3---3---3-3-----3-3-|--5--5-5-----5-5---5--5-5-5-5---|
 |---3---3-3-----3-3---3---3-3-----3-3-|--0--0-0-----0-0---0--0-0-0-0---|

|
| E E a E +Q. E E a E +Q.
 
 |-------------------------------------|--------------------------------|
 |-------------------------------------|--------------------------------|
 |--17--12---12s14---(14)--------------|-12-10---10S=9----(9)-----------|
 |-------------------------------------|--------------------------------|
 |--15--10---10s12---(12)--------------|-10--8----8s=7----(7)-----------|
 |-------------------------------------|--------------------------------|

|
| +Q. E E a E E E a E +Q.
 
 |-------------------------------------|--------------------------------|
 |-------------------------------------|--------------------------------|
 |-(14)---------------17--12---12s14---|-15-14---14s12---(12)-----------|
 |-------------------------------------|--------------------------------|
 |-(12)---------------15--10---10s12---|-13-12---12s10---(10)-----------|
 |-------------------------------------|--------------------------------|

[Gsus2]Gtr III[Bbsus2]
[E] [E] [E] [E] [E] [E] [E] [E] [E] [E] [E] [E]  
 
 |------------------|------------------------|
 |------------------|------------------------|
 |------------------|------------------------|
 |--------7-------7-|-----------10--------10-|
 |------5-------5---|------8------------8----|
 |--5--------5------|--8-------------8-------|

|
| Gtr IV
| E E E +Q. E E a E +Q.
 
 |------------------|------------------------|
 |------------------|------------------------|
 |-14--12-7-(7)-----|-10--12-12s14-(14)------|
 |------------------|------------------------|
 |-12--10-5-(5)-----|--8--10-10s12-(12)------|
 |------------------|------------------------|

|
| Gtr V
| >
| +H. H.
 
 |------------------|------------------------|
 |------------------|------------------------|
 |-(9)--------------|------------------------|
 |------------------|------------------------|
 |-(7)--------------|------------------------|
 |------------------|------------------------|

[Fsus2] [Dsus4]  
[E] [E] [E] [E] [E] [E] [E] [E] [E] [E] [E] [E]  
 
 |-----------------------|---------------------|
 |-----------------------|---------------------|
 |-----------------------|---------------------|
 |------------5--------5-|-----------5-------5-|
 |------3------------3---|------5----------5---|
 |--3-------------3------|--0-----------0------|

|
| E E a E +Q. E E a E +Q.
 
 |-----------------------|---------------------|
 |-----------------------|---------------------|
 |-17--12-12s14-(14)-----|-12--10-10S9-(9)-----|
 |-----------------------|---------------------|
 |-15--10-10s12-(12)-----|-10---8--8s7-(7)-----|
 |-----------------------|---------------------|

|
| H. H.
 
 |-----------------------|---------------------|
 |-----------------------|---------------------|
 |-----------------------|---------------------|
 |-----------------------|---------------------|
 |-----------------------|---------------------|
 |-----------------------|---------------------|

[Gsus2] [Bbsus2]  
[E] [E] [E] [E] [E] [E] [E] [E] [E] [E] [E] [E]  
 
 |-----------------|-----------------------|
 |-----------------|-----------------------|
 |-----------------|-----------------------|
 |-------7-------7-|----------10--------10-|
 |-----5-------5---|-----8------------8----|
 |--5-------5------|--8------------8-------|

|
| E E E +Q. E E a E +Q.
 
 |-----------------|-----------------------|
 |-----------------|-----------------------|
 |-14-12-7-(7)-----|-10-12-12s14-(14)------|
 |-----------------|-----------------------|
 |-12-10-5-(5)-----|--8-10-10s12-(12)------|
 |-----------------|-----------------------|

[Fsus2] E E E E E E [Dsus4] E E E +Q.
 
 |----------------------|------------------*|
 |----------------------|------------------*|
 |----------------------|------------------*|
 |-----------5--------5-|----------5-(5)---*|
 |-----3------------3---|-----5------------*|
 |--3------------3------|--0---------------*|

|
| E E a E +Q. E E a E +Q.
 
 |----------------------|------------------*|
 |----------------------|------------------*|
 |-17-12-12s14-(14)-----|-12-10-10s9-(9)---*|
 |----------------------|------------------*|
 |-15-10-10s12-(12)-----|-10--8--8s7-(7)---*|
 |----------------------|------------------*|

Duration Legend
 
 ---------------
 W - whole; H - half; Q - quarter; E - 8th; S - 16th; T - 32nd; X - 64th; a - acciaccatura

+ - note tied to previous; . - note dotted; .. - note double dotted
Uncapitalized letters represent notes that are staccato (1/2 duration)
Irregular groupings are notated above the duration line
Duration letters will always appear directly above the note/fret number it represents the
duration for. Duration letters with no fret number below them represent rests. Multi-
bar rests are notated in the form Wxn, where n is the number of bars to rest for. Low
melody durations appear below the staff
Tablature Legend
 
 ----------------

h - hammer-on
p - pull-off
b - bend
pb - pre-bend
r - bend release (if no number after the r, then release immediately)
/\ - slide into or out of (from/to "nowhere")
s - legato slide
S - shift slide
<n> - natural harmonic
(n) - artificial harmonic
n(n) - tapped harmonic
~ - vibrato
tr - trill
T - tap
TP - trem. picking
PM - palm muting
\n/ - tremolo bar dip; n = amount to dip
\n - tremolo bar down
n/ - tremolo bar up
/n\ - tremolo bar inverted dip
= - hold bend; also acts as connecting device for hammers/pulls
<> - volume swell (louder/softer)
x - on rhythm slash represents muted slash
o - on rhythm slash represents single note slash
Misc Legend
 
 -----------

| - bar
|| - double bar
||o - repeat start
o|| - repeat end
*| - double bar (ending)
: - bar (freetime)
$ - Segno
& - Coda
Tempo markers - <E/E./Q/Q./H/H.> = BPM(8/16=s8/s16), where s8 = swing 8ths, s16 = swing 16ths

Important: The song above is NOT stored on the Chordie server. The original song is hosted at www.xguitar.com. Chordie works as a search engine and provides on-the-fly formatting. Chordie does not index songs against artists'/composers' will. To remove this song please click here.

Text color:
Chord color:
Chord grids: 
Font size:    
Page size: 

A5 Ab Ab5 Asus2 Bbm Bbsus2 Bm C C# C#m D D/Ab D5 D7 Dm Dm7 Dsus4 E Eb5 Em F Fsus2 G G# G#m Gm Gsus2
Rate #1 of 2 versions

Login - add to songbook

SHARE PAGE  




You need to log in to post comments