Guitar Tabs, Chords and Lyrics
Major upgrade!! After one year development the new version of Chordie is now online! Please give feedback.


Under the Weeping Moon  Opeth

As recorded by Opeth
From the 1996 Album ORCHID
Words and Music by Mikael Akerfeldt
Arranged by Opeth
Gtr I (E A D G B E) - 'Acoustic (Left Channel)'
Gtr II (E A D G B E) - 'Acoustic (Right Channel)'
Gtr III (E A D G B E) - 'Distortion (Left Channel)'
Gtr IV (E A D G B E) - 'Distortion (Right Channel)'
Gtr V (E A D G B E) - 'Acoustic (Both Channels)'
Gtr VI (E A D G B E) - 'Distortion (Both Channels)'
Intro
Q=123
Em Em/Bb N.C. Em N.C.
[4/4] Gtr I
~~~~~~~~~~ ~~~~~~~~~~
H Q +Q +H E E E E Q. E Q +Q +H E E E E
 
 |-!0----(0)-------|----------------|-------------------|-----------------|
 |-!0----(0)-------|----------------|-------------------|-----------------|
 |-!0----(0)-------|----------------|-------------------|-----------------|
 |-!5--------------|----------------|-------------------|-----------------|
 |-!7--------------|--------5h7p5---|-------------------|--------5h7p5----|
 |-!0-----6---(6)--|-(6)----------6-|--0----6--6---(6)--|-(6)----------6--|

|
| Gtr II
| W W H H +H E E E E
 
 |-----------------|----------------|-^7----------------|-----------------|
 |-----------------|----------------|-^8----------------|-----------------|
 |-----------------|----------------|-^9----------------|-----------------|
 |-----------------|----------------|-^9----------------|-----------------|
 |-----------------|----------------|-^7----------------|--------5h7p5----|
 |-----------------|----------------|-^0------(6)-------|-(6)----------6--|

N.C.
~~~~~~~~~~
Q. E Q +Q +H E E E E
 
 |---------------------|-------------------------|
 |---------------------|-------------------------|
 |---------------------|-------------------------|
 |---------------------|-------------------------|
 |---------------------|-----------------5h7p5---|
 |-0---------6-6--(6)--|-(6)-------------------6-|

|
| ~~~~~~~~~~
| |-3--|
| T S. +Q E Q +Q +E E S S S E E E E E
 
 |---------------------|-------------------------|
 |---------------------|-------------------------|
 |---------------------|-------------------------|
 |---------------------|-----10-9h10p9-7-9-7-5h7-|
 |-5h7--(7)--5-5--(5)--|-(5)---------------------|
 |---------------------|-------------------------|

~~~~~~~~~~~
Q. E Q +Q +H E E E E
 
 |-----------------------|---------------------------------|
 |-----------------------|---------------------------------|
 |-----------------------|---------------------------------|
 |-----------------------|---------------------------------|
 |-----------------------|-------------------5h====7p5-----|
 |-0-------6-6-----(6)---|-(6)--------------------------6--|

|
| ~~~
| Q +E E E +Q E S +S E S +S E S +S E E E
 
 |-----------------------|---------------------------------|
 |-----------------------|---------------------------------|
 |-----------------------|---------------------------------|
 |-2---(2)s7-7-(7)-----5-|--5--(5)s3-3-(3)s2-2-(2)s5-------|
 |-----------------------|---------------------------7-----|
 |-----------------------|-----------------------------(7)-|

N.C.
e S S e E Q. E S +S E S +S E E E E E
 
 |------------------------|---------------------------------|
 |------------------------|---------------------------------|
 |------------------------|---------------------------------|
 |-7-5h7h=8--10-7-------5-|--5--(5)s=3-3----(3)s==2-2-------|
 |------------------------|---------------------------3-----|
 |------------------------|-----------------------------0h3-|

|
| ~~~~~~~~~~~
 
 | |---3----|

| Q +E E Q +Q +E E S S S E E E E E
 
 |------------------------|---------------------------------|
 |------------------------|---------------------------------|
 |------------------------|---------------------------------|
 |------------------------|---------10-9h10p====9-7-9-7-5h7-|
 |-7-----(7)s=5-5---(5)---|-(5)-----------------------------|
 |------------------------|---------------------------------|

[E5] 
[2/4] [4/4] Gtr III
Q. E Q. E E E E E E E E Q. E E
 
 |------------------|-----------------|----------------|
 |------------------|-----------------|----------------|
 |------------------|-----------------|----------------|
 |------------------|-----------------|-2-2-2----------|
 |-2-------0-7----5-|-5-----3-3-----2-|-2-2-2------2-2-|
 |------------------|-----------------|-0-0-0------0-0-|

|
| Gtr IV
| ~~
| Q +E E Q. E S +S E S +S E E E E Q. E E
 
 |------------------|-----------------|----------------|
 |------------------|-----------------|----------------|
 |------------------|-----------------|----------------|
 |-2---(2)s7-7----5-|-5-(5)s3-3-(3)s2-|-2-2-2----------|
 |------------------|-----------------|-2-2-2------2-2-|
 |------------------|-----------------|-0-0-0------0-0-|

Faster Q=129
E5 N.C.
~~~~~~~~~~~
Q. S +S E +Q. +H E E E E
 
 ||----------------------|-------------------------|
 ||o---------------------|-------------------------|
 ||----------------------|-------------------------|
 ||--2-------------------|-------------------------|
 ||o-2-------------------|-----------------5h7p5---|
 ||--0----h3-(3)S6-(6)---|-(6)-------------------6-|

|
| ~~~~~~~~~~~
| |-3--|
| Q. E E +Q. +E E S S S E E E E E
 
 ||----------------------|-------------------------|
 ||o---------------------|-------------------------|
 ||----------------------|-------------------------|
 ||----------------------|-----10-9h10p9-7-9-7-5h7-|
 ||o-7-----5-----5-(5)---|-(5)---------------------|
 ||----------------------|-------------------------|

~~~~~~~~~~~~
Q. S +S E +Q. +H E E E E
 
 |-------------------------|-----------------------------------------|
 |-------------------------|-----------------------------------------|
 |-------------------------|-----------------------------------------|
 |-2-----------------------|-----------------------------------------|
 |-2-----------------------|-------------------5h====7p====5---------|
 |-0-------h3-(3)S6-(6)----|-(6)---------------------------------6---|

|
| ~~~ ~~~
| Q +E E E +Q E S +S E S +S E S +S S +S S +E.
 
 |-------------------------|-----------------------------------------|
 |-------------------------|-----------------------------------------|
 |-------------------------|-----------------------------------------|
 |-2---(2)s=7-----7-(7)--5-|--5--(5)s3-3-(3)s2-2-(2)s5-(5)s2-(2)-----|
 |-------------------------|-----------------------------------------|
 |-------------------------|-----------------------------------------|

N.C.
~~~
 
 |---3---|

e T +T S S e E E +Q E S +S E S +S E E E E E
 
 |--------------------------------|---------------------------------|
 |--------------------------------|---------------------------------|
 |--------------------------------|---------------------------------|
 |-7-3-(3)s5h7h=8--10-7-(7)-----5-|--5--(5)s=3-3----(3)s==2-2-------|
 |--------------------------------|---------------------------3-----|
 |--------------------------------|-----------------------------0h3-|

|
| ~~~~~~~~~~~
 
 | |---3----|

| Q +E E Q +Q +E E S S S E E E E E
 
 |--------------------------------|---------------------------------|
 |--------------------------------|---------------------------------|
 |--------------------------------|---------------------------------|
 |--------------------------------|---------10-9h10p====9-7-9-7-5h7-|
 |-7-----------(7)s=5-5-----(5)---|-(5)-----------------------------|
 |--------------------------------|---------------------------------|

1.
~~~ ~~~ ~~~
E +Q E E +Q E S +S E S +S E S +S E S +E.
 
 |----------------------|----------------------------------||
 |----------------------|---------------------------------o||
 |----------------------|----------------------------------||
 |----------------------|----------------------------------||
 |-2-(2)-----0-7-(7)--5-|-5-(5)s3-3-(3)s2-2-(2)s3-2-(2)---o||
 |----------------------|----------------------------------||

|
| ~~~ ~~~
| Q +E E E +Q E S +S E S +S E S +S E S +E.
 
 |----------------------|----------------------------------||
 |----------------------|---------------------------------o||
 |----------------------|----------------------------------||
 |-2-----(2)s7-7-(7)--5-|-5-(5)s3-3-(3)s2-2-(2)s3-2-(2)----||
 |----------------------|---------------------------------o||
 |----------------------|----------------------------------||

2.
N.C.
~~~ ~~~ ~~~
E +Q E E +Q E S +S E S +S E S +S E S +E.
 
 |-------------------------|------------------------------------||
 |-------------------------|------------------------------------||
 |-------------------------|------------------------------------||
 |-------------------------|------------------------------------||
 |-2-(2)-----0-7-(7)-----5-|-5-(5)s3-3-(3)s2-2-(2)s3-2-(2)------||
 |-------------------------|------------------------------------||

|
| ~~~
| Q +E E E +E. +S E S +S E S +S E E E E +E
 
 |-------------------------|------------------------------------||
 |-------------------------|------------------------------------||
 |-------------------------|------------------------------------||
 |-2-----(2)s7-7-(7)-(7)s5-|-5-(5)s3-3-(3)s2--------------------||
 |-------------------------|-----------------7h====8-7-----(7)\-||
 |-------------------------|------------------------------------||

Pre-Verse
BsuN.C.
Q H. W
 
 |---------------------|----------------------------|
 |---------------------|----------------------------|
 |---------------------|----------------------------|
 |-2-------------------|----------------------------|
 |-2-------------------|----------------------------|
 |-0-------------------|----------------------------|

|
| PM---| PM PM
 
 | |-3--| |-3-| |3| |-3-| |3| |-3-| |--3---|

| Q E E E E E E Q E E E E Q E E E E E +E E
 
 |---------------------|----------------------------|
 |---------------------|----------------------------|
 |---------------------|----------------------------|
 |-2-------------------|----------------------------|
 |-2-------------------|-6h7-7-7--------------------|
 |-0--0--0-0-6p5-5-5-0-|---------0-6p5-5-5-(5)\-0---|

BsuN.C. E Eb E Eb Bsus4/E
PM--| PM PM PM PM
 
 |-3-| |-3-| |3| |---3---| |---3---|

Q E E E E E E Q E S +S E E S +S E E q Q
 
 |--------------------|---------------------------|
 |--------------------|---------------------------|
 |--------------------|-9-(9)s8---9-(9)s8---------|
 |-2------------------|---------------------2-----|
 |-2--------------5---|-7-(7)s6---7-(7)s6---2-----|
 |-0--0-0-0-6p5-5-5-0-|---------0---------0-0-----|

|
| PM--| PM PM PM
 
 | |-3-| |-3-| |3| |---3---| |---3---|

| Q E E E E E E Q E S +S E E S +S E E q Q
 
 |--------------------|---------------------------|
 |--------------------|---------------------------|
 |--------------------|-9-(9)s8---9-(9)s8---------|
 |-2------------------|---------------------2-----|
 |-2------------------|-7-(7)s6---7-(7)s6---2-----|
 |-0--0-0-0-6p5-5-5-0-|---------0---------0-0-----|

Verse
BsuN.C.
PM--| PM PM
 
 |-3-| |-3-| |3| |-3-| |3| |-3-| |--3---|

Q E E E E E E Q E E E E Q E E E E E +E E
 
 ||---------------------|----------------------------||
 ||o--------------------|---------------------------o||
 ||---------------------|----------------------------||
 ||--2------------------|----------------------------||
 ||o-2------------------|-6h7-7-7-------------------o||
 ||--0--0-0-0-6p5-5-5-0-|---------0-6p5-5-5-(5)\-0---||

|
| PM--| PM PM
 
 | |-3-| |-3-| |3| |-3-| |3| |-3-| |--3---|

| Q E E E E E E Q E E E E Q E E E E E +E E
 
 ||---------------------|----------------------------||
 ||o--------------------|---------------------------o||
 ||---------------------|----------------------------||
 ||--2------------------|----------------------------||
 ||o-2------------------|-6h7-7-7-------------------o||
 ||--0--0-0-0-6p5-5-5-0-|---------0-6p5-5-5-(5)\-0---||

Faster Q=135
BsuN.C.
PM--| PM PM
 
 |-3-| |-3-| |3| |-3-| |3| |-3-| |--3---|

Q E E E E E E Q E E E E Q E E E E E +E E 4x
 
 ||---------------------|---------------------------||
 ||o--------------------|--------------------------o||
 ||---------------------|---------------------------||
 ||--2------------------|---------------------------||
 ||o-2------------------|-6h7-7-7------------------o||
 ||--0--0-0-0-6p5-5-5-0-|---------0-6p5-5-5-(5)\-0--||

|
| PM--| PM PM
 
 | |-3-| |-3-| |3| |-3-| |3| |-3-| |--3---|

| Q E E E E E E Q E E E E Q E E E E E +E E 4x
 
 ||---------------------|---------------------------||
 ||o--------------------|--------------------------o||
 ||---------------------|---------------------------||
 ||--2------------------|---------------------------||
 ||o-2------------------|-6h7-7-7------------------o||
 ||--0--0-0-0-6p5-5-5-0-|---------0-6p5-5-5-(5)\-0--||

Bridge/Verse
Faster Q=138
N.C.
 
 |-3-| |-3-| |3| |---3---| |3| |---3---| |---3---|

Q Q E E E E Q E E E E Q E E E E E E E
 
 ||----------------------|-----------------------------------|
 ||o---------------------|-----------------------------------|
 ||----------------------|-----------------------------------|
 ||----------------------|-----------------------------------|
 ||o-/7--7---7-7p6-6-6-6-|-7p==6---6-6-6-7p=6----6-7p=6----6-|
 ||----------------------|-----------------------------------|

|
 
 | |-3-| |-3-| |3| |-3-| |3| |---3---| |---3---|

| Q E E E E E E Q E S S S E Q E E +S S E E +S S E
 
 ||----------------------|-----------------------------------|
 ||o---------------------|-----------------------------------|
 ||----------------------|-----------------------------------|
 ||----------------------|-----------------------------------|
 ||o--7--7-7-7-7p6-6-6-6-|-6h7p6-----------------------------|
 ||----------------------|-------8---8-8-8-(8)s5-5-5-(5)s7-0-|
 |-3-| |-3-| |3| |---3---| |3| |---3---| |---3---|

Q Q E E E E Q E E E E Q E E E E E E E
 
 |--------------------|------------------------------------||
 |--------------------|-----------------------------------o||
 |--------------------|------------------------------------||
 |--------------------|------------------------------------||
 |-7--7---7-7p6-6-6-6-|-7p==6---6-6-6-7p=6----6-7p=6----6-o||
 |--------------------|------------------------------------||

|
 
 | |-3-| |-3-| |3| |-3-| |3| |---3---| |---3---|

| Q E E E E E E Q E S S S E Q E E +S S E E +S S E
 
 |--------------------|------------------------------------||
 |--------------------|-----------------------------------o||
 |--------------------|------------------------------------||
 |--------------------|------------------------------------||
 |-7--7-7-7-7p6-6-6-6-|-6h7p6-----------------------------o||
 |--------------------|-------8---8-8-8-(8)s5-5-5-(5)s7-0--||

[E5] [F5]  
 
 |----3----|

q H. H Q E +E Q
 
 |----------------------|----------------------------|
 |----------------------|----------------------------|
 |----------------------|---------------10-10-(10)S7-|
 |-2--------------------|----------------------------|
 |-2--------------------|----------------8--8--(8)S5-|
 |-0--------------------|----------------------------|

|
 
 | |3| |-3--| |3| |-3-| |3| |--3--| |----3----|

| Q E E E E Q E E E E Q E E E E Q Q Q
 
 |----------------------|----------------------------|
 |----------------------|----------------------------|
 |-9-9-9--9-9-9-9-9-9-9-|-9-9-9-9\-(6)\--------------|
 |----------------------|----------------3--3------3-|
 |-7-7-7--7-7-7-7-7-7-7-|-7-7-7-7\-(4)\--3--3------3-|
 |----------------------|----------------1--1------1-|

Verse
[E] [Fsus4] [D]  
 
 |3| |-3-| |3| |-3-| |3| |-3-|

Q E E E E Q E E E E Q E E E E Q Q 4x
 
 ||----------------------|--------------------------||
 ||o---------------------|-------------------------o||
 ||--9-9-9-9-9-9-9-9-9-9-|-9-9-9-9-9-10-----7-------||
 ||----------------------|------------8-------------||
 ||o-7-7-7-7-7-7-7-7-7-7-|-7-7-7-7-7--8-----5------o||
 ||----------------------|--------------------------||

|
 
 | |3| |-3-| |3| |-3-| |3| |-3-| |-3-| |-3-|

| Q E E E E Q E E E E Q E E E E E E E E E E 4x
 
 ||----------------------|--------------------------||
 ||o---------------------|-------------------------o||
 ||----------------------|--------------------------||
 ||----------------------|--------------------------||
 ||o---------------------|------------7h8p7--------o||
 ||--0-0-7p6p0-0-0-7p6p0-|-0-0-7p6p0--------7p6p0---||

Bridge
[E] PM[Bb] PM
 
 |-3-| |-3-| |-3-| |-3-| |-3-| |-3-| |-3-| |-3-|

[E] [E] [E] [E] [E] [E] [E] [E] [E] [E] [E] [E] [E] [E] [E] [E] [E] [E] [E] [E] [E] [E] [E] [E]  
 
 ||--------------------------|-------------------------|
 ||o-------------------------|-------------------------|
 ||--4h5p4-------4h5p4-------|-4h5p4-------------2p0h2-|
 ||--------5p2h5-------5p2h5-|-------5p2-0-2h3-0-------|
 ||o-------------------------|-------------------------|
 ||--------------------------|-------------------------|

|
 
 | |-3-| |-3-| |-3-| |-3-| |-3-| |-3-| |-3-| |-3-|

| Q E E E E Q E E E E Q E E E E Q E E E E
 
 ||--------------------------|-------------------------|
 ||o-------------------------|-------------------------|
 ||--9---9-9-9-9-9---9-9-9-9-|-9---9-9-9-9-------------|
 ||--------------------------|-------------8---8-8-8-8-|
 ||o-7---7-7-7-7-7---7-7-7-7-|-7---7-7-7-7-------------|
 ||--------------------------|-------------6---6-6-6-6-|

1.,2.,3.
[D] [F]  
 
 |-3-| |-3-| |-3-| |-3-| |-3-| |-3-| |-3--|

[E] [E] [E] [E] [E] [E] [E] [E] [E] [E] [E] [E] [E] [E] [E] [E] [E] [E] [E] [E] [E] [E] [+E]  
 
 |-1p0-------0-1p0-------0-|-1p0-------0--1p0--------------------||
 |-----3---3-------3---3---|-----3---3---------3----------------o||
 |-------2-----------2-----|-------2--------------2----(2)/------||
 |-------------------------|-------------------------------------||
 |-------------------------|------------------------------------o||
 |-------------------------|-------------------------------------||

|
 
 | |-3-| |-3-| |-3-| |-3-| |-3-| |-3-| |-3--| |----3-----|

| Q E E E E Q E E E E Q E E E E Q E E E E
 
 |-------------------------|-------------------------------------||
 |-------------------------|------------------------------------o||
 |-7---7-7-7-7-7---7-7-7-7-|-7---7-7-7-7-10---10-10-10------10---||
 |-------------------------|-------------------------------------||
 |-5---5-5-5-5-5---5-5-5-5-|-5---5-5-5-5--8----8--8--8-------8--o||
 |-------------------------|-------------------------------------||

4. H.=H
[D] [F] [Am7/C]  
 
 |-3-| |-3-| |-3--|

E E E E E E E E E Q W
 
 |-1p0-------0--1p0-------------|----------|
 |-----3---3---------3----------|----------|
 |-------2--------------2-------|----------|
 |------------------------------|----------|
 |------------------------------|-7--------|
 |------------------------------|----------|

|
 
 | |-3-| |-3-| |-3--| |--3--|

| Q E E E E Q E E E E W
 
 |------------------------------|----------|
 |------------------------------|----------|
 |-7---7-7-7-7-10---10-10-10-10-|-5--------|
 |------------------------------|-5--------|
 |-5---5-5-5-5--8----8--8--8--8-|-3--------|
 |------------------------------|----------|

~~~~~~~~~~~~~~~~~~~~~~~~~~~~~
+W +W +W
 
 |------------|------------|------------------|
 |------------|------------|------------------|
 |------------|------------|------------------|
 |------------|------------|------------------|
 |-(7)--------|-(7)--------|-(7)--------------|
 |------------|------------|------------------|

|
| +W +W +H. +Q
 
 |------------|------------|------------------|
 |------------|------------|------------------|
 |-(5)--------|-(5)--------|-(5)--------------|
 |-(5)--------|-(5)--------|-(5)--------------|
 |-(3)--------|-(3)--------|-(3)------(3)/----|
 |------------|------------|------------------|

Verse
Slower Q=123
N.C.
~~~
Q +H. S S +S S +Q H +W
 
 |------------------|---------------------|------------|
 |------------------|---------------------|------------|
 |------------------|---------------------|------------|
 |------------------|---------------------|------------|
 |-7---(7)----------|---7-(7)s3-(3)--3----|-(3)--------|
 |------------------|---------------------|------------|

|
| E E E Q. E E E +S S +H. +W
 
 |------------------|---------------------|------------|
 |------------------|---------------------|------------|
 |------------------|---------------------|------------|
 |-8h9--------------|---------------------|------------|
 |-----10--9----8h9-|-8---(8)s3-(3)-------|-(3)--------|
 |------------------|---------------------|------------|

1.
E E E Q. E E E +S S +H. +W
 
 ||------------------|------------------|---------||
 ||o-----------------|------------------|--------o||
 ||------------------|------------------|---------||
 ||--5h6p=5----------|------------------|---------||
 ||o--------6----5h6-|-5-(5)s3-(3)------|-(3)----o||
 ||------------------|------------------|---------||

|
| E E E Q. E E E +S S +H. +W
 
 ||------------------|------------------|---------||
 ||o-----------------|------------------|--------o||
 ||------------------|------------------|---------||
 ||--8h9-------------|------------------|---------||
 ||o-----10-9----8h9-|-8-(8)s3-(3)------|-(3)----o||
 ||------------------|------------------|---------||

2.
N.C.
E +S S +Q H H H
 
 |-------------------|--------------|
 |-------------------|--------------|
 |-------------------|--------------|
 |-------------------|--------------|
 |-5-(5)s3-(3)--3----|--3-----3-----|
 |-------------------|--------------|

|
| E +S S +Q H +H Q Q
 
 |-------------------|--------------|
 |-------------------|--------------|
 |-------------------|--------------|
 |-------------------|--------------|
 |-8-(8)s3-(3)--3----|-(3)----3--3--|
 |-------------------|--------------|

1.,2.
~~~ ~~~ ~~~ ~~~
E +Q. E +Q. E +Q. E +E E E
 
 ||-------------------------|------------------------|
 ||o------------------------|------------------------|
 ||-------------------------|------------------------|
 ||-------------------------|------------------------|
 ||o-/6-(6)------6-(6)------|-6-(6)------6-(6)--5h=6-|
 ||-------------------------|------------------------|

|
| ~~~ ~~~ ~~~ ~~~
| E E +Q E E +Q E E +Q E E +Q
 
 ||-------------------------|------------------------|
 ||o------------------------|------------------------|
 ||-------------------------|------------------------|
 ||---4h=5--(5)--4h=5--(5)--|-4h=5--(5)--4h=5--(5)---|
 ||o------------------------|------------------------|
 ||-------------------------|------------------------|

N.C.
~~~ ~~~ ~~~ ~~~
E +S S +Q E +Q. E +Q. E +Q.
 
 |-------------------------|------------------------||
 |-------------------------|-----------------------o||
 |-------------------------|------------------------||
 |-------------------------|------------------------||
 |-5-(5)s3-(3)--3-(3)------|-3-(3)------3-(3)------o||
 |-------------------------|------------------------||

|
| ~~~ ~~~ ~~~ ~~~
| E E +Q E E +Q E E +Q E E +Q
 
 |-------------------------|------------------------||
 |-------------------------|-----------------------o||
 |-------------------------|------------------------||
 |-4h=5----(5)--4h=5--(5)--|-4h=5--(5)--4h=5--(5)---||
 |-------------------------|-----------------------o||
 |-------------------------|------------------------||

|
| Gtr V
| W W
 
 |-------------------------|------------------------||
 |-------------------------|-----------------------o||
 |-------------------------|------------------------||
 |-------------------------|------------------------||
 |-------------------------|-----------------------o||
 |-------------------------|------------------------||

3.
~~~ ~~~
E +Q. E +E E E E +S S +H.
 
 |---------------------------|------------------------|
 |---------------------------|------------------------|
 |---------------------------|------------------------|
 |---------------------------|------------------------|
 |-6-(6)------6-(6)--5h==6---|-5-(5)s3-(3)------------|
 |---------------------------|------------------------|

|
| ~~~ ~~~
| E E +Q E E +E +E E E E Q. E E
 
 |---------------------------|------------------------|
 |---------------------------|------------------------|
 |---------------------------|------------------------|
 |-4h=5--(5)--4h=5--(5)-(5)/-|-8h=9-------------------|
 |---------------------------|---------10--9----8h9---|
 |---------------------------|------------------------|

|
| W W
 
 |---------------------------|------------------------|
 |---------------------------|------------------------|
 |---------------------------|------------------------|
 |---------------------------|------------------------|
 |---------------------------|------------------------|
 |---------------------------|------------------------|

Extremely Long Interlude
Slightly Faster Q=126
[C5] >
+W +W
 
 |-------------------------|-------------------|
 |-------------------------|-------------------|
 |-------------------------|-------------------|
 |-------------------------|-------------------|
 |-(3)---------------------|-(3)---------------|
 |-------------------------|-------------------|

|
| >
| E +S S +H. +W
 
 |-------------------------|-------------------|
 |-------------------------|-------------------|
 |-------------------------|-------------------|
 |-------------------------|-------------------|
 |--8--(8)s3-(3)-----------|-(3)---------------|
 |-------------------------|-------------------|

|
| E E E E E E E E E E E E E E E E
 
 |-------------------------|-------------------|
 |-------------------------|-------------------|
 |------------5--------5---|-------5-------6---|
 |------5--------5---5---5-|-----5---5---5---5-|
 |--3--------------3-------|--3--------3-------|
 |-------------------------|-------------------|

+W W
 
 |-------------------|-----------------|
 |-------------------|-----------------|
 |-------------------|-----------------|
 |-------------------|-----------------|
 |-(3)---------------|-----------------|
 |-------------------|-----------------|

|
| +W W
 
 |-------------------|-----------------|
 |-------------------|-----------------|
 |-------------------|-----------------|
 |-------------------|-----------------|
 |-(3)---------------|-----------------|
 |-------------------|-----------------|

|
| E E E E E E E E E E E E E E E E
 
 |-------------------|-----------------|
 |-------------------|-----------------|
 |-------5-------5---|-----5-------6---|
 |-----5---5---5---5-|---5---5---5---5-|
 |--3--------3-------|-3-------3-------|
 |-------------------|-----------------|

[C5]Gtr V
[E] [E] [E] [E] [E] [E] [E] [E] [E] [E] [E] [E] [E] [E] [E] [E] [E] [E] [E] [E] [E] [E] [E] [E] [E] [E] [E] [E] [E] [E] [E] [E]  
 
 |-----------------|-----------------|-----------------|-----------------|
 |-----------------|-----------------|-----------------|-----------------|
 |-----5-------5---|-----5-------6---|-----5-------5---|-----5-------6---|
 |---5---5---5---5-|---5---5---5---5-|---5---5---5---5-|---5---5---5---5-|
 |-3-------3-------|-3-------3-------|-3-------3-------|-3-------3-------|
 |-----------------|-----------------|-----------------|-----------------|

[C5]Gtr VI
S S S S Q H S S S S Q H
 
 |---------------------------|-------------------------------------|
 |---------------------------|-------------------------------------|
 |---------------------------|--12---12---12---12---12\------------|
 |-10-10-10-10-10\-----------|-(10)-(10)-(10)-(10)-(10)\-----------|
 |---------------------------|-------------------------------------|
 |---------------------------|-------------------------------------|

|
| Gtr V
| E E E E E E E E E E E E E E E E
 
 |---------------------------|-------------------------------------|
 |---------------------------|-------------------------------------|
 |--------------5--------5---|-----------------------5---------6---|
 |--------5--------5---5---5-|-------------5-------------5---5---5-|
 |--3----------------3-------|---3-------------------------3-------|
 |---------------------------|-------------------------------------|

<
S S S S Q H H Q +E +E
 
 |-------------------------------------|-----------------------------|
 |-------------------------------------|---------13b14====(13)-(13)r=|
 |-(12)-(12)-(12)-(12)-(12)\-----------|-----------------------------|
 |-------------------------------------|-----------------------------|
 |-------------------------------------|-----------------------------|
 |-------------------------------------|-----------------------------|

|
| E E E E E E E E E E E E E E E E
 
 |-------------------------------------|-----------------------------|
 |-------------------------------------|-----------------------------|
 |-----------------------5---------5---|-----5--------------6--------|
 |-------------5-------------5---5---5-|---5---5--------5--------5---|
 |---3-------------------------3-------|-3--------3------------------|
 |-------------------------------------|-----------------------------|

[C5] < <
+Q Q Q +E +E +Q E +Q +Q +E
 
 |----------------------------------|----------------------------------|
 |-(13)\-------(13)b14====(13)r(13)-|-(13)\----------------------------|
 |----------------------------------|---------10-(10)b12---(10)---(10)-|
 |----------------------------------|----------------------------------|
 |----------------------------------|----------------------------------|
 |----------------------------------|----------------------------------|

|
| E E E E E E E E E E E E E E E E
 
 |----------------------------------|----------------------------------|
 |----------------------------------|----------------------------------|
 |---------5----------------5-------|----------5----------------6------|
 |-------5---5----------5--------5--|-------5------5---------5------5--|
 |---3-----------3------------------|---3----------------3-------------|
 |----------------------------------|----------------------------------|

<
+Q E +Q +Q +E +Q Q Q +E +E
 
 |------------------------------|----------------------------|
 |--------(6)-(6)b8---(6)---(6)-|-(6)------------------------|
 |-(10)-------------------------|-----------5pb6====(5)-(5)r=|
 |------------------------------|----------------------------|
 |------------------------------|----------------------------|
 |------------------------------|----------------------------|

|
| E E E E E E E E E E E E E E E E
 
 |------------------------------|----------------------------|
 |------------------------------|----------------------------|
 |---------5--------------5-----|-------5------------6-------|
 |------5------5-------5-----5--|-----5---5-------5------5---|
 |---3--------------3-----------|--3--------3----------------|
 |------------------------------|----------------------------|

[C5] <
/0.25\ /0.25\ /0.25\
 
 |----------3----------|

+S +E S Q Q +E +E +S +E S H. Q Q +Q +Q +Q
 
 |-----------------------------------|--------------------------|-----15---(15)-------(15)-------(15)-------|
 |-----------------(1)pb2====(1)-(1)r|=(1)-(1)------------------|-------------------------------------------|
 |-(5)-(5)---------------------------|--------------------------|-------------------------------------------|
 |-----------------------------------|--------------------------|-------------------------------------------|
 |-----------------------------------|--------------------------|-------------------------------------------|
 |-----------------------------------|--------------------------|-------------------------------------------|

|
| E E E E E E E E E E E E E E E E E E E E E E E E
 
 |-----------------------------------|--------------------------|-------------------------------------------|
 |-----------------------------------|--------------------------|-------------------------------------------|
 |-------------5--------------5------|-------------5--------6---|------5-----------------------5------------|
 |---------5-----5---------5------5--|---------5------5---5---5-|---5----5----------5---------------------5-|
 |--3---------------3----------------|--3---------------3-------|-3----------3------------------------------|
 |-----------------------------------|--------------------------|-------------------------------------------|

/0.25\ /0.25\ /0.25\ /0.25\ /0.25\ /0.25\
 
 |----------3----------| |----------3----------|

+Q +Q +Q +Q +Q +Q
 
 |-(15)-------(15)-------(15)-------(15)-------(15)-------(15)---------|
 |---------------------------------------------------------------------|
 |---------------------------------------------------------------------|
 |---------------------------------------------------------------------|
 |---------------------------------------------------------------------|
 |---------------------------------------------------------------------|

|
| E E E E E E E E
 
 |---------------------------------------------------------------------|
 |---------------------------------------------------------------------|
 |---------------------5--------------------------------6--------------|
 |----------5---------------------5----------5---------------------5---|
 |---3--------------------------------3--------------------------------|
 |---------------------------------------------------------------------|

[C5] /0.25\ /0.25\ /0.25\ /0.25\ /0.25\ /0.25\
 
 |----------3----------| |----------3----------|

+Q +Q +Q +Q +Q +Q
 
 |-(15)-------(15)-------(15)-------(15)-------(15)-------(15)-------|
 |-------------------------------------------------------------------|
 |-------------------------------------------------------------------|
 |-------------------------------------------------------------------|
 |-------------------------------------------------------------------|
 |-------------------------------------------------------------------|

|
| E E E E E E E E
 
 |-------------------------------------------------------------------|
 |-------------------------------------------------------------------|
 |---------------------5--------------------------------5------------|
 |----------5---------------------5----------5---------------------5-|
 |---3--------------------------------3------------------------------|
 |-------------------------------------------------------------------|

\0.5 \0.5
+H. +Q H Q +Q W
 
 |-(15)-----------(15)-----|---------(15)---(15)-----|-----------------|
 |-------------------------|-------------------------|-----------------|
 |-------------------------|-------------------------|-----------------|
 |-------------------------|-------------------------|-----------------|
 |-------------------------|-------------------------|-----------------|
 |-------------------------|-------------------------|-----------------|

|
| E E E E E E E E E E E E E E E E E E E E E E E E
 
 |-------------------------|-------------------------|-----------------|
 |-------------------------|-------------------------|-----------------|
 |--------5---------6------|-----5------------5------|-----5-------6---|
 |------5---5---5--------5-|---5---5------5--------5-|---5---5---5---5-|
 |---3--------3------------|-3---------3-------------|-3-------3-------|
 |-------------------------|-------------------------|-----------------|

[C5] <
 
 |---------3---------| |---------3---------| |-----3-----|

Q Q +Q +Q +Q +Q +Q +Q +H +Q
 
 |-----12---(12)b13r==(12)b13r==(12)b13r==|=(12)b13r==(12)b13r==(12)---(12)b13r====(12)---|
 |----------------------------------------|-----------------------------------------------|
 |----------------------------------------|-----------------------------------------------|
 |----------------------------------------|-----------------------------------------------|
 |----------------------------------------|-----------------------------------------------|
 |----------------------------------------|-----------------------------------------------|

|
| E E E E E E E E E E E E E E E E
 
 |----------------------------------------|-----------------------------------------------|
 |----------------------------------------|-----------------------------------------------|
 |------5---------------------5-----------|-------------------5------------------6--------|
 |---5----5---------5-------------------5-|---------5----------------5---------5--------5-|
 |-3----------3---------------------------|---3--------------------------3----------------|
 |----------------------------------------|-----------------------------------------------|
 |-------3--------|

+H +Q +Q +Q +H +H
 
 |-(12)b13r======(12)---(12)b13r==(12)---|-(12)b13r======(12)---------|
 |---------------------------------------|----------------------------|
 |---------------------------------------|----------------------------|
 |---------------------------------------|----------------------------|
 |---------------------------------------|----------------------------|
 |---------------------------------------|----------------------------|

|
| E E E E E E E E E E E E E E E E
 
 |---------------------------------------|----------------------------|
 |---------------------------------------|----------------------------|
 |-----------5------------------5--------|-----------5----------6-----|
 |---------5---5------5----------------5-|---------5---5------5---5---|
 |---3-------------3---------------------|---3-------------3----------|
 |---------------------------------------|----------------------------|

[C5] +W +W
 
 |-(12)b15---------------|-(12)---------------|
 |-----------------------|--------------------|
 |-----------------------|--------------------|
 |-----------------------|--------------------|
 |-----------------------|--------------------|
 |-----------------------|--------------------|

|
| E E E E E E E E E E E E E E E E
 
 |-----------------------|--------------------|
 |-----------------------|--------------------|
 |-----------5-------5---|--------5-------6---|
 |---------5---5---5---5-|------5---5---5---5-|
 |---3-----------3-------|---3--------3-------|
 |-----------------------|--------------------|

+W +W
 
 |-(12)---------------|-(12)---------------|
 |--------------------|--------------------|
 |--------------------|--------------------|
 |--------------------|--------------------|
 |--------------------|--------------------|
 |--------------------|--------------------|

|
| E E E E E E E E E E E E E E E E
 
 |--------------------|--------------------|
 |--------------------|--------------------|
 |--------5-------5---|--------5-------6---|
 |------5---5---5---5-|------5---5---5---5-|
 |---3--------3-------|---3--------3-------|
 |--------------------|--------------------|

[C5] <
+Q H Q +Q +Q +Q +E E
 
 |-(12)\-----------11pb12====|=(11)---(11)---(11)r==(11)---|
 |---------------------------|-----------------------------|
 |---------------------------|-----------------------------|
 |---------------------------|-----------------------------|
 |---------------------------|-----------------------------|
 |---------------------------|-----------------------------|

|
| E E E E E E E E E E E E E E E E
 
 |---------------------------|-----------------------------|
 |---------------------------|-----------------------------|
 |---------5--------5--------|----------5-------------6----|
 |-------5---5---5---------5-|------5------5------5------5-|
 |---3---------3-------------|---3-------------3-----------|
 |---------------------------|-----------------------------|

<
Q +Q +Q +E E Q +Q +Q +E E
 
 |-(11)pb12====(11)---(11)r==(11)---|-12pb13====(12)---(12)r==(12)---|
 |----------------------------------|--------------------------------|
 |----------------------------------|--------------------------------|
 |----------------------------------|--------------------------------|
 |----------------------------------|--------------------------------|
 |----------------------------------|--------------------------------|

|
| E E E E E E E E E E E E E E E E
 
 |----------------------------------|--------------------------------|
 |----------------------------------|--------------------------------|
 |---------------5-------------5----|-------------5-------------6----|
 |-----------5------5------5------5-|---------5------5------5------5-|
 |---3------------------3-----------|--3-----------------3-----------|
 |----------------------------------|--------------------------------|

[C5] < <
Q +Q +Q +E E Q Q +H
 
 |-(12)pb13====(12)---(12)r==(12)---|-----14---(14)-------|
 |----------------------------------|---------------------|
 |----------------------------------|---------------------|
 |----------------------------------|---------------------|
 |----------------------------------|---------------------|
 |----------------------------------|---------------------|

|
| E E E E E E E E E E E E E E E E
 
 |----------------------------------|---------------------|
 |----------------------------------|---------------------|
 |---------------5-------------5----|------5----------6---|
 |-----------5------5------5------5-|---5----5------5---5-|
 |---3------------------3-----------|-3----------3--------|
 |----------------------------------|---------------------|

+W +H +E +E +E E
 
 |-(14)---------------|-(14)-------(14)b15-(14)-(14)---|
 |--------------------|--------------------------------|
 |--------------------|--------------------------------|
 |--------------------|--------------------------------|
 |--------------------|--------------------------------|
 |--------------------|--------------------------------|

|
| E E E E E E E E E E E E E E E E
 
 |--------------------|--------------------------------|
 |--------------------|--------------------------------|
 |--------5-------5---|--------5------------------6----|
 |------5---5---5---5-|------5---5-----------5-------5-|
 |---3--------3-------|---3----------3-----------------|
 |--------------------|--------------------------------|

[C5] < <
 
 |-----------3-----------|

E +Q +E +E +E Q W Q +Q +Q +Q +Q
 
 |-(14)-(14)---(14)b15-(14)-(14)-----|-----------------|-12---(12)---(12)b12.5r==(12)b12.5r==(12)---|
 |-----------------------------------|-----------------|--------------------------------------------|
 |-----------------------------------|-----------------|--------------------------------------------|
 |-----------------------------------|-----------------|--------------------------------------------|
 |-----------------------------------|-----------------|--------------------------------------------|
 |-----------------------------------|-----------------|--------------------------------------------|

|
| E E E E E E E E E E E E E E E E E E E E E E E E
 
 |-----------------------------------|-----------------|--------------------------------------------|
 |-----------------------------------|-----------------|--------------------------------------------|
 |-----------5-------------------5---|-----5-------6---|--------5--------------------------5--------|
 |--------5------5------------5----5-|---5---5---5---5-|----5------5-----------5------------------5-|
 |---3-------------------3-----------|-3-------3-------|--3------------3----------------------------|
 |-----------------------------------|-----------------|--------------------------------------------|
 |--------3---------| |-----------3-----------|

+Q +Q +Q +Q +Q +Q
 
 |-(12)b12.5r==(12)---(12)---(12)b12.5r==(12)b12.5r==(12)---|
 |----------------------------------------------------------|
 |----------------------------------------------------------|
 |----------------------------------------------------------|
 |----------------------------------------------------------|
 |----------------------------------------------------------|

|
| E E E E E E E E
 
 |----------------------------------------------------------|
 |----------------------------------------------------------|
 |------------------5------------------------------6--------|
 |-----------5-------------5-----------5------------------5-|
 |---3-------------------------3----------------------------|
 |----------------------------------------------------------|

[C5]  
 
 |-----------3-----------| |--------3---------| |-----------3-----------| |--------3---------|

+Q +Q +Q +Q +Q +Q +Q +Q +Q +Q +Q +Q
 
 |-(12)b12.5r==(12)b12.5r==(12)b12.5r==(12)---(12)b12.5r==(12)---|-(12)b12.5r==(12)b12.5r==(12)---(12)b12.5r==(12)---(12)b12.5r==|
 |---------------------------------------------------------------|---------------------------------------------------------------|
 |---------------------------------------------------------------|---------------------------------------------------------------|
 |---------------------------------------------------------------|-------------------------------------------

Important: The song above is NOT stored on the Chordie server. The original song is hosted at www.xguitar.com. Chordie works as a search engine and provides on-the-fly formatting. Chordie does not index songs against artists'/composers' will. To remove this song please click here.

Text color:
Chord color:
Chord grids: 
Font size:    
Page size: 

Am7/C Bb C5 D E E5 F F5 Fsus4
Rate #1 of 1 versions

Login - add to songbook

SHARE PAGE  




You need to log in to post comments