Guitar Tabs, Chords and Lyrics
Major upgrade!! After one year development the new version of Chordie is now online! Please give feedback.


Serenity Painted Death  Opeth

As recorded by Opeth
From the 1999 Album STILL LIFE
Words and Music by Mikael Åkerfeldt
Arranged by Opeth
4 6 [G#m]6 4 4 4 3 5 5[G] 4 3 3 x 5 [Dm]7 7 6 5 5 7 [Am]7 5 5 5
Bm/F# Bm/G Bm/A Bm/F#II
x x 4 4 3 x 3 x 4 4 3 x x 0 4 4 3 x 2 x 4 4 3 x
Gtr I (E A D G B E) - 'lead'
Gtr II (E A D G B E) - 'Distortion I'
Gtr III (E A D G B E) - 'distortion II'
Gtr IV (E A D G B E) - 'Acoustic I'
Gtr V (E A D G B E) - 'Acoustic II'
Gtr VI (E A D G B E) - 'Clean Lead'
Intro
Q.=131
9/8 1[Dm]2/8
Gtr I
H. Q. Q E E E E Q E E E E
 
 |--------------||------------------------|
 |--------------||o-6--6-6-6-6-6--6-6-6-6-|
 |--------------||--7--7-7-7-7-7--7-7-7-7-|
 |--------------||------------------------|
 |--------------||o-----------------------|
 |--------------||------------------------|

|
| Gtr II
| H. Q. Q E E E E Q E E E E
 
 |--------------||------------------------|
 |--------------||o-----------------------|
 |--------------||--7--7-7-7-7-7--7-7-7-7-|
 |--------------||--7--7-7-7-7-7--7-7-7-7-|
 |--------------||o-5--5-5-5-5-5--5-5-5-5-|
 |--------------||------------------------|

|
| Gtr III
| H. Q. Q E E E E Q E E E E
 
 |--------------||------------------------|
 |--------------||o-----------------------|
 |--------------||------------------------|
 |--------------||--7--7-7-7-7-7--7-7-7-7-|
 |--------------||o-5--5-5-5-5-5--5-5-5-5-|
 |--------------||------------------------|

[Dm/A]E E E E E E Q. Q E [F]H. H.
 
 |-------------------------|---------------------------|
 |-6p5-5-5-5-5-5-----------|-5-----------/10-----------|
 |-7-7-7-7-7-7-7-----5---7-|---------------------------|
 |-------------------------|--------------/7-----------|
 |-------------------------|---------------------------|
 |-------------------------|---------------------------|

|
| Q E E E E Q E E E E Q E E E E Q E E E E
 
 |-------------------------|---------------------------|
 |-------------------------|-1---1-1-1-1---1---1-1-1-1-|
 |-7---7-7-7-7-7---7-7-7-7-|-2---2-2-2-2---2---2-2-2-2-|
 |-7---7-7-7-7-7---7-7-7-7-|-3---3-3-3-3---3---3-3-3-3-|
 |-0---0-0-0-0-0---0-0-0-0-|---------------------------|
 |-------------------------|---------------------------|

|
| Q E E E E Q E E E E Q E E E E Q E E E E
 
 |-------------------------|---------------------------|
 |-------------------------|---------------------------|
 |-------------------------|-5---5-5-5-5---5---5-5-5-5-|
 |-7---7-7-7-7-7---7-7-7-7-|-3---3-3-3-3---3---3-3-3-3-|
 |-5---5-5-5-5-5---5-5-5-5-|-3---3-3-3-3---3---3-3-3-3-|
 |-------------------------|---------------------------|

[A] W
a Q E +E Q Q E E Q 6x
 
 |-----------------------------------||-|
 |-10h11--10-(10)-8---10------------o||-|
 |------------------------10-12-9----||-|
 |--7h=8---7--(7)-5----7-------------||-|
 |-------------------------8-10-7---o||-|
 |-----------------------------------||-|

|
| Q E E E E Q E E E E 6x
 
 |-----------------------------------||-|
 |-----3---3---3--3-3--3---3--3-3-3-o||-|
 |-----2---2---2--2-2--2---2--2-2-2--||-|
 |-----2---2---2--2-2--2---2--2-2-2--||-|
 |-----0---0---0--0-0--0---0--0-0-0-o||-|
 |-----------------------------------||-|

|
| Q E E E E Q E E E E 6x
 
 |-----------------------------------||-|
 |-----2---2---2--2-2--2---2--2-2-2-o||-|
 |-----2---2---2--2-2--2---2--2-2-2--||-|
 |-----2---2---2--2-2--2---2--2-2-2--||-|
 |----------------------------------o||-|
 |-----------------------------------||-|

[G#m]Gtr IV[G]
Q E +E E E E Q Q E Q E +E E E E Q Q E
| | | | | | | | | | | | | | | | | |
[/] [/] [/] [/] [/] [/] [/] [/] [/] [/] [/] [/] [/] [/] [/] [/] [/] [/] 
H. Q Q Q a Q. Q. a Q. Q.
 
 ||--------------------------------||-----------------------------------|
 ||o-------------------------------||-----------------------------------|
 ||--/8-------------/8---6-----4---||-4S7-------6------4S6------4-------|
 ||--------------------------------||-----------------------------------|
 ||o-------------------------------||-----------------------------------|
 ||--------------------------------||-----------------------------------|

|
| Q E +E E E Q E +E E E E E E E E E E E E E E E
 
 ||--------------------------------||---3--3-3--3--3-3---3--3-3-3--3-3--|
 ||o-------------------------------||---3--3-3--3--3-3---3--3-3-3--3-3--|
 ||--------------------------------||---4--4-4--4--4-4---4--4-4-4--4-4--|
 ||-------6-(6)-4-6------6-(6)-4-6-||---5--5-5--5--5-5---5--5-5-5--5-5--|
 ||o--6--------------6-------------||-----------------------------------|
 ||--------------------------------||-----------------------------------|

|
| W W
 
 ||--------------------------------||-----------------------------------|
 ||o-------------------------------||-----------------------------------|
 ||--------------------------------||-----------------------------------|
 ||--------------------------------||-----------------------------------|
 ||o-------------------------------||-----------------------------------|
 ||--------------------------------||-----------------------------------|

[Dm]Q E +E E E E Q Q E
| | | | | | | | |
[/] [/] [/] [/] [/] [/] [/] [/] [/]  
H. a H.
 
 |------------------------------|
 |------------------------------|
 |-7-------------7S9------------|
 |------------------------------|
 |------------------------------|
 |------------------------------|

|
| E E E E E E E E E E E E
 
 |------------------------------|
 |-6--6-6--6-6-6---6--6-6-6-6-6-|
 |-7--7-7--7-7-7---7--7-7-7-7-7-|
 |-7--7-7--7-7-7---7--7-7-7-7-7-|
 |-5--5-5--5-5-5---5--5-5-5-5-5-|
 |------------------------------|

1.,2.,3. 4.
[Am]Q E +E E E E Q Q E [Am]Q E +E E E E Q Q E
| | | | | | | | | | | | | | | | | |
[/] [/] [/] [/] [/] [/] [/] [/] [/] [/] [/] [/] [/] [/] [/] [/] [/] [/] 
E E H +H. E E H H E E
 
 |-----------------------------||--------------------------|
 |----------------------------o||--------------------------|
 |-5p4-2--------(2)------------||-5p4-2--------2-------2h4-|
 |-----------------------------||--------------------------|
 |----------------------------o||--------------------------|
 |-----------------------------||--------------------------|

|
| E E E E E E E E E E E E E E E E E E E E E E E E
 
 |-----------------------------||--------------------------|
 |-5-5-5--5-5-5--5--5-5-5-5-5-o||-5-5-5--5-5-5-5-5-5-5-5-5-|
 |-5-5-5--5-5-5--5--5-5-5-5-5--||-5-5-5--5-5-5-5-5-5-5-5-5-|
 |-7-7-7--7-7-7--7--7-7-7-7-7--||-7-7-7--7-7-7-7-7-7-7-7-7-|
 |-7-7-7--7-7-7--7--7-7-7-7-7-o||-7-7-7--7-7-7-7-7-7-7-7-7-|
 |-----------------------------||--------------------------|

[E]W.[Esus4] [E] [E7]
 
 |------------------------|
 |------------------------|
 |-4----------------------|
 |------------------------|
 |------------------------|
 |------------------------|

|
| W.
 
 |------------------------|
 |------------------------|
 |------------------------|
 |------------------------|
 |------------------------|
 |------------------------|

|
| Gtrs II, III
| Q E E E E Q E E E E
 
 |------------------------|
 |------------------3-----|
 |-1-----2-x-x-1----1-----|
 |-2-----2-x-x-2--x-2-x-x-|
 |-2-----------2------x-x-|
 |------------------------|

[Fmaj7]+W. [E]+W.
 
 |------------------------------|-----------------------|
 |------------------------------|-----------------------|
 |-(4)--------------------------|-(4)-------------------|
 |------------------------------|-----------------------|
 |------------------------------|-----------------------|
 |------------------------------|-----------------------|

|
| Gtr IV
| W. Q Q Q Q Q Q
 
 |------------------------------|--------------0-----0--|
 |------------------------------|-----------------0-----|
 |------------------------------|-----------3-----------|
 |------------------------------|------(2)--------------|
 |------------------------------|-----------------------|
 |------------------------------|-(0)-------------------|

|
| Q. E E E Q Q E. +T T +W.
 
 |------------------------------|-----------------------|
 |------------------------------|-----------------------|
 |-------9-----/10--9--7--(7)s9-|-(9)-------------------|
 |-------7----------------------|-----------------------|
 |--8----8-x-x--/8--7--5--(5)s7-|-(7)-------------------|
 |--8------x-x------------------|-----------------------|

W. +W. +W.
 
 |-------------------|-------------------|-----------------|
 |-------------------|-------------------|-----------------|
 |--4----------------|-(4)---------------|-(4)-------------|
 |-------------------|-------------------|-----------------|
 |-------------------|-------------------|-----------------|
 |-------------------|-------------------|-----------------|

|
| H. H. W. W.
 
 |-------------------|-------------------|-----------------|
 |-(0)---------------|-------------------|-----------------|
 |-(3)---------------|-------------------|-----------------|
 |-------------------|-------------------|-----------------|
 |-------------------|-------------------|-----------------|
 |-------------------|-------------------|-----------------|

|
| H. +H. +H. +H. +H. +H.
 
 |-------------------|-------------------|-----------------|
 |-------------------|-------------------|-----------------|
 |-(9)------(9)------|-(9)------(9)------|-(9)------(9)----|
 |-------------------|-------------------|-----------------|
 |-(7)------(7)------|-(7)------(7)------|-(7)------(7)----|
 |--0-------(0)------|-(0)------(0)------|-(0)------(0)----|

"Met the earth in silence"
Q=94
[F#5]  
[5/4] Gtr II
Q S S S S S S S S S S S S S S S S
 
 |--------------------------------------------|
 |--------------------------------------------|
 |----4h=6--6-6---x-4h=6--4h=6--6-6---x-4h=6--|
 |----4-(4)-4-4---x-4-(4)-4-(4)-4-4---x-4-(4)-|
 |----4-(4)-4-4---x-4-(4)-4-(4)-4-4---x-4-(4)-|
 |----0h=2--2-2---x-0h=2--0h=2--2-2---x-0h=2--|

Q S S S S S S S S S S S S S S S S
[4/4] S S S S S S S S S S S S S S S S
 
 |------------------------------------------|
 |------------------------------------------|
 |-4h=6--6-6---x-4h=6--4h=6--6-7-7--6--6-6--|
 |-4-(4)-4-4---x-4-(4)-4-(4)-4-4-4--4--4-4--|
 |-4-(4)-4-4---x-4-(4)-4-(4)-4-4-4-(4)-4-4--|
 |-0h=2--2-2---x-0h=2--0h=2--2-2-3p=2--2-2--|

S S S S S S S S S S S S S S S S
S S S S S S S S S S S S S S S S
 
 |-----------------------------------------|
 |-----------------------------------------|
 |-4h=6--6-6---x-4h=6--4h=6--6-6---x-4h=6--|
 |-4-(4)-4-4---x-4-(4)-4-(4)-4-4---x-4-(4)-|
 |-4-(4)-4-4---x-4-(4)-4-(4)-4-4---x-4-(4)-|
 |-0h=2--2-2---x-0h=2--0h=2--2-2---x-0h=2--|

| S S S S S S S S S S S S S S S S
|
| Gtr III
| S S S S S S S S S S S S S S S S
 
 |-----------------------------------------|
 |-----------------------------------------|
 |-----------------------------------------|
 |-----------------------------------------|
 |-4-(4)-4-4---x-4-(4)-4-(4)-4-4---x-4-(4)-|
 |-0h=2--2-2---x-0h=2--0h=2--2-2---x-0h=2--|

S S S S S S S S S S S S S S S S
 
 |------------------------------------------|
 |------------------------------------------|
 |-4h=6--6-6---x-4h=6--4h=6--6-7-7--6--6-6--|
 |-4-(4)-4-4---x-4-(4)-4-(4)-4-4-4--4--4-4--|
 |-4-(4)-4-4---x-4-(4)-4-(4)-4-4-4-(4)-4-4--|
 |-0h=2--2-2---x-0h=2--0h=2--2-2-3p=2--2-2--|

| S S S S S S S S S S S S S S S S
|
| S S S S S S S S S S S S S S S S
 
 |------------------------------------------|
 |------------------------------------------|
 |------------------------------------------|
 |------------------------------------------|
 |-4-(4)-4-4---x-4-(4)-4-(4)-4-4-4-(4)-4-4--|
 |-0h=2--2-2---x-0h=2--0h=2--2-2-3p=2--2-2--|

[F#5]S S S S S S S S S S [G5]S S S S [D5] S S
 
 ||------------------------------------10-10-|
 ||o-----------------------------------------|
 ||--4h=6--6-6---x-4h=6--4h=6--7-7---x--7--7-|
 ||--4--4--4-4---x-4--4--4--4--5-5---x-------|
 ||o-4-(4)-4-4---x-4-(4)-4-(4)-5-5---x--5--5-|
 ||------------------------------------------|

|
| S S S S S S S S S S S S S S S S
 
 ||------------------------------------------|
 ||o-----------------------------------------|
 ||-------------------------------------7--7-|
 ||-------------------------------------7--7-|
 ||o-4-(4)-4-4---x-4-(4)-4-(4)-5-5---x--5--5-|
 ||--0h=2--2-2---x-0h=2--0h=2--3-3---x-------|

1.,2.,3.,4.,5.
T +T [C#5] S S S S S [A#5]S S S [A#5/A]S S S S S [F#5]S S
 
 |-10-(10)-\9-9-9-----6-6-6-6-6-6-------------||
 |-------------------------------------------o||
 |--7--(7)S=6-6-6---x-3-3-3-3-3-3---x---------||
 |----------6-6-6---x-3-3-3-3-3-3---x---------||
 |--5--(5)S=4-4-4---x-1-1-1p0-0-0---x-4-(4)--o||
 |------------------------------------0h=2----||

|
| T +T S S S S S S S S S S S S S S S
 
 |--------------------------------------------||
 |-------------------------------------------o||
 |--7--(7)S=6-6-6---x-3-3-3-3-3-3---x---------||
 |--7--(7)S=6-6-6---x-3-3-3-3-3-3---x---------||
 |--5--(5)S=4-4-4---x-1-1-1p0-0-0---x-4-(4)--o||
 |------------------------------------0h=2----||

6.
T +T [C#5] S S S S S [A#5]S S S s S S S S S S
 
 |-10-(10)-\9-9-9-------------------------|
 |----------------------------------------|
 |--7--(7)S=6-6-6---x-3-3-3-3---3---3---3-|
 |----------6-6-6---x-3-3-3-3---3---3---3-|
 |----------4-4-4---x-1-1-1-1---1---1---1-|
 |----------------------------------------|

|
| T +T S S S S S S S S s S S S S S S
 
 |----------------------------------------|
 |----------------------------------------|
 |--7--(7)S=6-6-6---x-3-3-3-3---3---3---3-|
 |--7--(7)S=6-6-6---x-3-3-3-3---3---3---3-|
 |--5--(5)S=4-4-4---x-1-1-1-1---1---1---1-|
 |----------------------------------------|

Gtrs II, III[C#5] [G5/D] [E5]
S S S S S S S S S S S S S S S S E S S +S S e H
 
 |---------------------------------|--------------------|
 |---------------------------------|--------------------|
 |-----2-----2-----------6---4---5-|-6-6-7-(7)-7--------|
 |---------------------6-----------|-6-6-5-(5)-5--------|
 |---0-----0-----0---4-----2---3---|-4-4-5-(5)-5-7------|
 |-2-----1-----4---4---------------|-------------0------|

Chorus
Gt[AbmGm]r I[Gbm] [F]
 
 PM--| ~~~ PM----| PM

a E. E S E. s s s E. S a E S E s s s s S S s S S S S 6x
 
 ||------------------------------------|--------------------------------||
 ||o-----------------------------------|-------------------------------o||
 ||--3S4--3----------------------------|---2---2---------------5-6-8-9--||
 ||--5S6--5----------------------------|-3S4-x-3------------------------||
 ||o---------------------5-6-[7]-------|-----------------3-4---3-4-6-7-o||
 ||--3S4--3---6-6------6-------------0-|-1S2-x-1-0-4-3-0-3h4-0----------||

|
| Gtr II
 
 | PM--| PM| PM----| PM

| a E. S S S E +S s s s S S s s E S E S s s s S S s S S S S 6x
 
 ||------------------------------------|--------------------------------||
 ||o-----------------------------------|-------------------------------o||
 ||------------------------------------|-----------------------5-6-8-9--||
 ||--5S6--5----------------------------|---4---3------------------------||
 ||o-----------------------------------|---4-x-3---------3-4---3-4-6-7-o||
 ||--3S4--3---0-1--(1)-0-0-0--3--2-1-0-|---2-x-1-x-4-3-0-3h4-0----------||

Instrumental
Q=86
5/8
Gtr II Gtr I
H +E +Q. E E E. E. E E E. E. E E
 
 |----------|-----------||-----------------------|---------------------|
 |----------|-----------||o--------12---------10-|-9----------------12-|
 |-9----(9)-|-(9)---9-9-||--9--------------10----|--------10------9----|
 |-8----(8)-|-(8)---8-8-||-----------------------|---------------------|
 |-7----(7)-|-(7)---7-7-||o----------------------|---------------------|
 |-6----(6)-|-(6)---6-6-||-----------------------|---------------------|

|
| Gtr III Gtrs II, III
| H +E +Q. E E S S S S S S E E S S S S S S E E
 
 |----------|-----------||-----------------------|---------------------|
 |----------|-----------||o----------------------|---------------------|
 |-9----(9)-|-(9)---9-9-||--3--x-x----------3----|-3--x-x---------3----|
 |-8----(8)-|-(8)---8-8-||--2--x-x--2--x-x--2--2-|-2--x-x--2--x-x-2--2-|
 |-7----(7)-|-(7)---7-7-||o-1--x-x--1--x-x--1--1-|-1--x-x--1--x-x-1--1-|
 |-6----(6)-|-(6)---6-6-||----------0--x-x-----0-|---------0--x-x----0-|

a E. E. E E
 
 |---------------------------|
 |-12h13------12------/16-13-|
 |---------------------------|
 |---------------------------|
 |---------------------------|
 |---------------------------|

|
| S S S S S S E E
 
 |---------------------------|
 |---------------------------|
 |-----8--x-x--8--x-x---8--8-|
 |-----7--x-x--7--x-x---7--7-|
 |-----6-------6--------6--6-|
 |-------------5-----------5-|

6/8
 
 |-------------------------5:6-------------------------|

E. T T T T T T T T T T T T T T T 4x
 
 |---------14-11---14-11------11-------------------------------------||
 |-12----------------------13----13---10-10---13-10------10---------o||
 |--------------------------------------------------11------11-------||
 |---------------------------------------------------------------13--||
 |------------------------------------------------------------------o||
 |-------------------------------------------------------------------||

|
| S S S S S S S S S S S S 4x
 
 |-------------------------------------------------------------------||
 |------------------------------------------------------------------o||
 |--8--8----8----8-------------8----8-------------8----8-------8-----||
 |--7--7----7----7-------------7----7-------------7----7-------7-----||
 |--6--6----6----6-------------6----6-------------6----6-------6----o||
 |-------------------------------------------------------------------||

Q=87
[(E5)]  
[4/4] Q. E +Q. S S
 
 ||-----------------------------------|
 ||o----------12---(12)---------12h13-|
 ||--9--------------------------------|
 ||-----------------------------------|
 ||o----------------------------------|
 ||-----------------------------------|

|
| E. S S S S S S E S S S S S
 
 ||-----------------------------------|
 ||o----------------------------------|
 ||-----------------------------------|
 ||-----------------------------------|
 ||o------7----------7----------------|
 ||--0--0---0--5h6------0-0-5-6--6--5-|

S S S S S S S [D5] S S S S [F5] S S S S S
 
 |---------------------------------------------------|
 |-10h=12-------10-----------------------------------|
 |--------12-12----12-11-12-11-----/9--7-------------|
 |------------------------------12-------7--7--5--7--|
 |---------------------------------------------------|
 |---------------------------------------------------|

|
| +E S S S S S S +S E E S S S
 
 |---------------------------------------------------|
 |---------------------------------------------------|
 |---------4--5--5--5--5--7-(7)--7----10---10-10-10--|
 |---------5--7--7--7--7--7-(7)--7----10---10-10-10--|
 |------------------------5-(5)--5-----8----8--8--8--|
 |-(5)-----------------------------------------------|

[(E5)]S S S S +H.
 
 |--------------------------------------|
 |--------------------------------------|
 |-4h7-/9--9-(9)------------------------|
 |--------------------------------------|
 |--------------------------------------|
 |--------------------------------------|

|
| E. S S S S S +S E S E S S
 
 |--------------------------------------|
 |--------11-11S10-10-10-(10)S8---------|
 |--------------------------------3-3-3-|
 |---------8--8S=7--7--7--(7)S5---2-2-2-|
 |--------------------------------1-1-1-|
 |-0----------------------------0-------|

|
| Gtr IV
| W
 
 |--------------------------------------|
 |--------------------------------------|
 |--------------------------------------|
 |--------------------------------------|
 |--------------------------------------|
 |--------------------------------------|

[Em] [G] [Am]|--3--|[Cmaj7]
E. E S S S S S E S Q
 
 |----------------------------------------------||
 |---------------------------------------------o||
 |-/9------7-----7------------------------------||
 |-----------------7h8p==7p=5h=7----/9-9--------||
 |---------------------------------------------o||
 |----------------------------------------------||

|
| E. S +E E +S E. Q
 
 |----------------------------------------------||
 |---------------------------------------------o||
 |----------------------------------------------||
 |----------------------------------------------||
 |-----------------0-------(0)-3-------3-------o||
 |--0------3-(3)--------------------------------||

|
| S S S S S S S S S S S S S S S S
 
 |-------------------------------------0--------||
 |---------------------------------------0-----o||
 |--------------------------------0--------0----||
 |-------2-------0-----2-------2-----2-------2--||
 |-----2------2----0--------3------------------o||
 |--0------3------------------------------------||

"Beautiful Pain"
Q=86
[(E5)]Gtrs I, II[D5] [F5]
E. S S S S S S E S S S S S +E S S S S S S +S E E S S S
 
 ||-----------------------------|------------------------------------|
 ||o----------------------------|------------------------------------|
 ||-----------------------------|-----4-5-5-5-5-7-(7)-7-10-10-10-10--|
 ||-----------------------------|-----5-7-7-7-7-7-(7)-7-10-10-10-10--|
 ||o------7-------7-------------|---------------5-(5)-5--8--8--8--8--|
 ||--0--0---0-5h6---0-0-5-6-6-5-|-(5)--------------------------------|

[(E5)]Gtrs I, II[Em] [G] [Am] [Cmaj7]
E. S S S S S +S E S E S S E. S +E E +S E. Q
 
 |----------------------------------|----------------------------------------||
 |----11-11S10-10-10-(10)S8---------|---------------------------------------o||
 |----------------------------3-3-3-|----------------------------------------||
 |-----8--8S=7--7--7--(7)S5---2-2-2-|----------------------------------------||
 |----------------------------1-1-1-|----------------0---(0)-3------3-------o||
 |-0------------------------0-------|-0------3-(3)---------------------------||

|
| Gtr IV
| W S S S S S S S S S S S S S S S S
 
 |----------------------------------|-------------------------------0--------||
 |----------------------------------|---------------------------------0-----o||
 |----------------------------------|---------------------------0-------0----||
 |----------------------------------|------2-------0---2-----2----2-------2--||
 |----------------------------------|----2------2----0----3-----------------o||
 |----------------------------------|-0------3-------------------------------||

[(E5)]Gtr I
Q. E +Q. S S
 
 ||-----------------------------------|
 ||o----------12---(12)---------12h13-|
 ||--9--------------------------------|
 ||-----------------------------------|
 ||o----------------------------------|
 ||-----------------------------------|

|
| Gtrs II, III
| E. S S S S S S E S S S S S
 
 ||-----------------------------------|
 ||o----------------------------------|
 ||-----------------------------------|
 ||-----------------------------------|
 ||o------7----------7----------------|
 ||--0--0---0--5h6------0-0-5-6--6--5-|

S S S S S S S [D5] S S S S [F5] S S S S S
 
 |--------------------------------------------------|
 |-10h=12-------10----------------------------------|
 |--------12-12----12-11-12-11-----/9--7------------|
 |------------------------------12-------7--7--5--7-|
 |--------------------------------------------------|
 |--------------------------------------------------|

|
| +E S S S S S S +S E E S S S
 
 |--------------------------------------------------|
 |--------------------------------------------------|
 |---------4--5--5--5--5--7-(7)--7----10---10-10-10-|
 |---------5--7--7--7--7--7-(7)--7----10---10-10-10-|
 |------------------------5-(5)--5-----8----8--8--8-|
 |-(5)----------------------------------------------|

[(E5)]S S S S +H.
 
 |--------------------------------------|
 |--------------------------------------|
 |-4h7-/9--9-(9)------------------------|
 |--------------------------------------|
 |--------------------------------------|
 |--------------------------------------|

|
| E. S S S S S +S E S E S S
 
 |--------------------------------------|
 |--------11-11S10-10-10-(10)S8---------|
 |--------------------------------3-3-3-|
 |---------8--8S=7--7--7--(7)S5---2-2-2-|
 |--------------------------------1-1-1-|
 |-0----------------------------0-------|

|
| Gtr IV
| W
 
 |--------------------------------------|
 |--------------------------------------|
 |--------------------------------------|
 |--------------------------------------|
 |--------------------------------------|
 |--------------------------------------|

[Em] [G] [Am]|--3--|[Cmaj7]
E. E S S S S S E S Q
 
 |----------------------------------------------||
 |---------------------------------------------o||
 |-/9------7-----7------------------------------||
 |-----------------7h8p==7p=5h=7----/9-9--------||
 |---------------------------------------------o||
 |----------------------------------------------||

|
| E. S +E E +S E. Q
 
 |----------------------------------------------||
 |---------------------------------------------o||
 |----------------------------------------------||
 |----------------------------------------------||
 |-----------------0-------(0)-3-------3-------o||
 |--0------3-(3)--------------------------------||

|
| S S S S S S S S S S S S S S S S
 
 |-------------------------------------0--------||
 |---------------------------------------0-----o||
 |--------------------------------0--------0----||
 |-------2-------0-----2-------2-----2-------2--||
 |-----2------2----0--------3------------------o||
 |--0------3------------------------------------||

7[Em]/8[Em/G] [Gmaj7+5]
Gtrs IV, V
S S S S S S +S S S S S S S S S S S S S S S s S S Q
 
 |-------------------------------|-----2-----3-(3)/-5-----7--|
 |-------------------0-----------|-0-----0------0-----7h8-0--|
 |-----------------0-----0-----0-|---0-----0-----------------|
 |-----2-----2-(2)-----4---2-1---|---------------------------|
 |---2-----2---------------------|---------------------------|
 |-0-----3-----------------------|---------------------------|

Interlude
Q=84 1.,2.,3.,4.,5.
7[Am7]/8 4/4
Gtrs IV, V
S S S S S S S e e E. S S S S S S S S S S S S S S S S 6x
 
 ||----------------------------|------------0----------0------0------0--||
 ||o-------0---0h1---3-0--0----|-------4------4------1------1------1---o||
 ||------0---0-----0-4-4--4----|-2--/4----4-----2-1------0--------------||
 ||------------------5-5--5----|--------------------------------2-------||
 ||o-0-------------------------|---------------------------------------o||
 ||----------------------------|----------------------------------------||

|
| Gtr VI
| Q.. Q E S E. Q E. E. E. 6x
 
 ||----------------------------|------------------8------7------4-------||
 ||o-5-------------------------|---------------------------------------o||
 ||--2-------------------/9--7-|------------------5------4------1-------||
 ||----------------------------|-9-------10-----------------------------||
 ||o---------------------------|---------------------------------------o||
 ||----------------------------|----------------------------------------||

|
| Gtr II
| H.. W 6x
 
 ||----------------------------|----------------------------------------||
 ||o---------------------------|---------------------------------------o||
 ||----------------------------|----------------------------------------||
 ||----------------------------|----------------------------------------||
 ||o---------------------------|---------------------------------------o||
 ||----------------------------|----------------------------------------||

6.
S S S S S S S S S S S S S S S S
 
 |------------0----------0-------0------0--|
 |-------4------4------1-------1------1----|
 |-2--/4----4-----2-1-------0--------------|
 |---------------------------------2-------|
 |-----------------------------------------|
 |-----------------------------------------|

|
| E. Q E. E. E.
 
 |------------------8-------7------4-------|
 |-----------------------------------------|
 |------------------5-------4------1-------|
 |-9-------10------------------------------|
 |-----------------------------------------|
 |-----------------------------------------|

|
| <
| E. Q E. +Q.
 
 |------------------7------(7)-------------|
 |-----------------------------------------|
 |-----------------------------------------|
 |-----------------------------------------|
 |-----------------------------------------|
 |-----------------------------------------|

Q=82
Bm/F# Bm/G Bm/Bm/F#II Bm/F# Bm/G Bm/Bm/F#II
Gtr V
Q.. E. E. E. Q.. E. E. E.
| | | | | | | |
[/] [/] [/] [/] [/] [/] [/] [/] 
Gtr IV
S S S S S S S E. E. E. S S S S S S S E. E. E.
 
 |-----------------------------------------|----------------------------------|
 |------------3----------------------------|--------------3-------------------|
 |--------4-----4--------------------------|----------4-----4-----------------|
 |------4---4-----4------------------------|-------4----4-----4---------------|
 |--2--------------------------------------|--2-------------------------------|
 |------------------3------------5--2------|--------------------3------5--2---|

|
| Gtr II
| +W +H +E Q.
 
 |-(7)-------------------------------------|-(7)-------------------(7)-5------|
 |------------------7----------------------|----------------------------------|
 |---------------------7-------------------|----------------------------------|
 |-----------------------9-----------------|----------------------------------|
 |-------------------------9---------------|----------------------------------|
 |---------------------------7-------------|-(7)------------------------------|

| Q.. T T T T Q.. +W
|
| Gtr VI
| H.. S S S H. E.
 
 |-----------------------------------------|----------------------------------|
 |-----------------------------------------|----------------------------------|
 |-------------------------------------7---|--9---11--------------------------|
 |-----------------------------------------|----------------------------------|
 |-------------------------------------5---|--7----9--------------------------|
 |-----------------------------------------|----------------------------------|

Bm/F# Bm/G Bm/Bm/F#IIBm/F# Bm/Bm/Bm/F#II
Q.. E. E. E. Q.. E. E. E.
| | | | | | | |
[/] [/] [/] [/] [/] [/] [/] [/] 
S S S S S S S E. E. E. S S S S S S S E. E. E.
 
 |-----------------------------------------|------------------------------|
 |-----------3-----------------------------|-------------3----------------|
 |-------4-----4---------------------------|---------4-----4--------------|
 |-----4---4-----4-------------------------|-------4---4-----4------------|
 |-2---------------------------------------|---2--------------------------|
 |-------------------3-------------5--2----|---------------------3--5--2--|

|
| <
| H H +W
 
 |-5----------------------12---------------|-(12)-------------------------|
 |-------------------7---------------------|------------------------------|
 |-2--------------------7------------------|------------------------------|
 |-------------------------9---------------|------------------------------|
 |---------------------------9-------------|------------------------------|
 |-----------------------------7-----------|--(7)-------------------------|

| Q.. T T T T Q.. +W
|
| Q. Q.. S E Q. Q.. E.
 
 |-5---------------------------------------|------------------------------|
 |------------------------------------8----|---7--------------------------|
 |-2---------------------------------------|------------------------------|
 |------------------------------------5----|---4--------------------------|
 |-----------------------------------------|------------------------------|
 |-----------------------------------------|------------------------------|

[Gm7]Gtrs IV, V[(Db5)] [(C5)] [(Bb5)]
S S S S S S S S S S S S S S S S
 
 |-----------------------------------------|
 |-----------------------------------------|
 |-------------0-------------0-----0-----0-|
 |-----------3---3--------0------0-----0---|
 |---------5-------5--4--------3-----1-----|
 |--1---/3---------------------------------|

|
| Gtr II
| Q.. S +H
 
 |-13----------------12-(12)---------------|
 |-----------------------------------------|
 |-----------------------------------------|
 |-----------------------------------------|
 |-----------------------------------------|
 |-----------------------------------------|

[Gm7] S S S S S S S [(Db5)]S S S [(C5)]S S S [(Bb5)]S S S
 
 |-------------------------------------|
 |-------------------------------------|
 |-------------0---------0-----0-----0-|
 |-----------3---3-----0-----0-----0---|
 |---------5-------5-4-----3-----1-----|
 |---1--/3-----------------------------|

|
| ~~~~
| +W
 
 |-(12)--------------------------------|
 |-------------------------------------|
 |-------------------------------------|
 |-------------------------------------|
 |-------------------------------------|
 |-------------------------------------|

[Gm7] S S S S S S S [(Db5)] S S S [(C5)]S S S [(Bb5)]S S S
 
 |------------------------------------------|
 |------------------------------------------|
 |--------------0-------------0-----0-----0-|
 |------------3---3--------0------0-----0---|
 |----------5-------5--4--------3-----1-----|
 |---1---/3---------------------------------|

|
| +Q.. S +H
 
 |-(12)---------------13-(13)---------------|
 |------------------------------------------|
 |------------------------------------------|
 |------------------------------------------|
 |------------------------------------------|
 |------------------------------------------|

[Gm7] S S S S S S S [(Db5)]S S S [(C5)]S S S [(Bb5)]S S S
 
 |-------------------------------------|
 |-------------------------------------|
 |-------------0---------0-----0-----0-|
 |-----------3---3-----0-----0-----0---|
 |---------5-------5-4-----3-----1-----|
 |---1--/3-----------------------------|

|
| +W
 
 |-(13)--------------------------------|
 |-------------------------------------|
 |-------------------------------------|
 |-------------------------------------|
 |-------------------------------------|
 |-------------------------------------|

Gm7 (Db5) (C5) (Bb5) Cm A° Ab°
Gtr IV
S S S S S S S S S S S S S S S S E. S E. E S Q.
 
 |-------------------------------------|---------------------|
 |-------------------------------------|---------------------|
 |-------------0---------0-----0-----0-|---------5--5---4----|
 |-----------3---3-----0-----0-----0---|-------5----7---6----|
 |---------5-------5-4-----3-----1-----|---3-----------------|
 |---1--/3-----------------------------|---------------------|

|
| Gtr V
| S S S S S S S S S S S S S S S S E. S E. E S Q.
 
 |-------------------------------------|---------------------|
 |-------------------------------------|---------4-----------|
 |-------------0---------0-----0-----0-|-------5----5-7-7----|
 |-----------3---3-----0-----0-----0---|------------7-9-9----|
 |---------5-------5-4-----3-----1-----|---3-----------------|
 |---1--/3-----------------------------|---------------------|

|
| Gtr II
| ~~~~
| +W +Q H.
 
 |-(13)--------------------------------|-(13)\---------------|
 |-------------------------------------|---------------------|
 |-------------------------------------|---------------------|
 |-------------------------------------|---------------------|
 |-------------------------------------|---------------------|
 |-------------------------------------|---------------------|

DESTRUCTION RIFF
Q=85
[4/4] Gtrs I, II
S S S S S S S S S S S S S E. S S S S S S S S S S S S S E.
 
 ||-------------------------------|------------------------------|
 ||o------------------------------|------------------------------|
 ||----6-6-6-6-6---6-6-6-6-6---6\-|---6-6-6-6-6---6-6-6-6-6---6\-|
 ||----5-5-5-5-5---5-5-5-5-5---5\-|---5-5-5-5-5---5-5-5-5-5---5\-|
 ||o---4-4-4-4-4---4-4-4-4-4---4\-|---4-4-4-4-4---4-4-4-4-4---4\-|
 ||-------------------------------|------------------------------|

1.
S [E5]S S S S S S S S S S S S E. S S S S S S S S S S S S S E.
 
 |------------------------------|-------------------------------||
 |------------------------------|------------------------------o||
 |---------9--------------------|---------9---------------------||
 |---9-9-9-9-9---9-9-9-9-9---9\-|---9-9-9-9-9---9-9-9-9-9---9\--||
 |---7-7-7-7-7---7-8-8-7-7---7\-|---7-7-7-7-7---7-8-8-7-7---7\-o||
 |---0-0-0-0-0---0-0-0-0-0---0--|---0-0-0-0-0---0-0-0-0-0---0---||

2.
[E5EbD5]|-3-|
S S S S S S S S S S S S E E E
 
 |---------------------------------|
 |---------------------------------|
 |---------9---------------9-8-7---|
 |---9-9-9-9-9---9-9-9-9---9-8-7---|
 |---7-7-7-7-7---7-8-8-7---7-6-5---|
 |---0-0-0-0-0---0-0-0-0-----------|

S S S S S S S S S S S S S E. S S S S S S S S S S S S S E.
 
 ||-------------------------------|------------------------------|
 ||o------------------------------|------------------------------|
 ||----6-6-6-6-6---6-6-6-6-6---6\-|---6-6-6-6-6---6-6-6-6-6---6\-|
 ||----5-5-5-5-5---5-5-5-5-5---5\-|---5-5-5-5-5---5-5-5-5-5---5\-|
 ||o---4-4-4-4-4---4-4-4-4-4---4\-|---4-4-4-4-4---4-4-4-4-4---4\-|
 ||-------------------------------|------------------------------|

1.
Gt[E5]r I
W W
 
 |------------------------------|-------------------------------||
 |------------------------------|------------------------------o||
 |------------------------------|-------------------------------||
 |------------------------------|-------------------------------||
 |------------------------------|------------------------------o||
 |------------------------------|-------------------------------||

|
| Gtrs I, II
| S S S S S S S S S S S S S E. S S S S S S S S S S S S S E.
 
 |------------------------------|-------------------------------||
 |------------------------------|------------------------------o||
 |---------9--------------------|---------9---------------------||
 |---9-9-9-9-9---9-9-9-9-9---9\-|---9-9-9-9-9---9-9-9-9-9---9\--||
 |---7-7-7-7-7---7-8-8-7-7---7\-|---7-7-7-7-7---7-8-8-7-7---7\-o||
 |---0-0-0-0-0---0-0-0-0-0---0--|---0-0-0-0-0---0-0-0-0-0---0---||

2.
H.. [A5] S S
 
 |---------------------------------------|
 |---------------------------------10-13-|
 |---------------------------------------|
 |---------------------------------------|
 |---------------------------------------|
 |---------------------------------------|

|
| S S S S S S S S S S S S S E.
 
 |---------------------------------------|
 |---------------------------------------|
 |-----------9------------------2--------|
 |-----9-9-9-9-9---9-9-9-9-9----2--------|
 |-----7-7-7-7-7---7-8-8-7-7----0--------|
 |-----0-0-0-0-0---0-0-0-0-0-------------|

Guitar Solo
[Bm] [Cm] 
[4/4] Gtr I
~~~ ~~~ ~~~ ~~~~~~~~~~
Q. S S Q S S E +E E +E E +E Q.
 
 |------------------------------------||---------------------------------------|
 |-12--------12-13-/15-----13-12------||---------------------------------------|
 |-------------------------------12---||-(12)-10---(10)------------------------|
 |------------------------------------||----------------\10---(10)-------------|
 |------------------------------------||-----------------------------10--------|
 |------------------------------------||---------------------------------------|

|
| Gtrs II, III
| E S S E S S S S E E S S E S S E S S S S E E S S
 
 |------------------------------------||---------------------------------------|
 |--3--3-3-3--3--3---3-3-3--3-----3-3-||---4---4-4---4----4-4---4--4--4--4-4-4-|
 |--4--4-4-4--4--4---4-4-4--4-----4-4-||---5---5-5---5----5-5---5--5--5--5-5-5-|
 |--4--4-4-4--4--4---4-4-4--4-----4-4-||---5---5-5---5----5-5---5--5--5--5-5-5-|
 |--2--2-2-2--2--2---2-2-2--2-----2-2-||---3---3-3---3----3-3---3--3--3--3-3-3-|
 |------------------------------------||---------------------------------------|

~[Gm]~~~~~ ~~~~
 
 |------5:3-------|

Q S S S +E T T E E E E E
 
 |------------------------------------------------------------|
 |------------------------------------[10]-11---13-11---10----|
 |----------------------------------x-------------------------|
 |-/12-------10-12-[12]b14r(12)---x---------------------------|
 |------------------------------------------------------------|
 |------------------------------------------------------------|

|
| S S S S E S S S S E E S S
 
 |------------------------------------------------------------|
 |------------------------------------------------------------|
 |------------------------------------------------------------|
 |---3S5-5-5--5------5-------5--5-5-----5-----5-------5----5--|
 |---3S5-5-5--5------5-------5--5-5-----5-----5-------5----5--|
 |---1S3-3-3--3------3-------3--3-3-----3-----3-------3----3--|

[Absus2] [F5] [Bm]  
 
 |-----6-----| |-----6-----| |----6-----| |-------6--------|

Q +E E +E Q. S S S S S S S S S S S S S S S E S S S S S S S
 
 |--------------------------------||-10-9-7-----------------7---9-10-9---7-9---------------------17-||
 |--------------------------------||--------7-------------7---------------------------17-19-20------||
 |--------------------------------||----------7---6---6-7--------------------16-18-19---------------||
 |-\10---(10)---8--(8)---7--------||----------------9-----------------------------------------------||
 |--------------------------------||----------------------------------------------------------------||
 |--------------------------------||----------------------------------------------------------------||

|
| E E S S E. S E E S S E S S E S S S S E E S S
 
 |--------------------------------||----------------------------------------------------------------||
 |--------------------------------||--3-----3---3---3-----3---3----3---3---3-----3--------3----3----||
 |--------------------------------||--4-----4---4---4-----4---4----4---4---4-----4--------4----4----||
 |---8-8---x--x-3------3-3--3-3-3-||--4-----4---4---4-----4---4----4---4---4-----4--------4----4----||
 |---6-6---x--x-3------3-3--3-3-3-||--2-----2---2---2-----2---2----2---2---2-----2--------2----2----||
 |---4-4---x--x-1------1-1--1-1-1-||----------------------------------------------------------------||

[Cm]  
 
 |---3---| |---3---| |-------3-------| |-----3-----|

[E] [E] [E] [E] [E] [E] [E] [+E] [E] [E] [+E] [E]  
 
 |-18-17---15--------------------------------13-(13)-(13)------------|
 |--------------15-13---11---13---(13)b15========13--(13)r---11------|
 |-------------------------------------------------------------------|
 |-------------------------------------------------------------------|
 |-------------------------------------------------------------------|
 |-------------------------------------------------------------------|

|
| E S S E S S S S E E S S
 
 |-------------------------------------------------------------------|
 |--4----4----4--4----4----4--4-4----------4------4--------4----4----|
 |--5----5----5--5----5----5--5-5----------5------5--------5----5----|
 |--5----5----5--5----5----5--5-5----------5------5--------5----5----|
 |--3----3----3--3----3----3--3-3----------3------3--------3----3----|
 |-------------------------------------------------------------------|

[Gm] Q S. T T T S S S S S S S S S
 
 |-------------------------------------------------|
 |-------------------------------------------------|
 |-12-------12p10----------------------------------|
 |----------------12-10----------------------------|
 |----------------------13-12-13-12----10-13-12-13-|
 |----------------------------------13-------------|

|
| S S S S E S S S S E E S S
 
 |-------------------------------------------------|
 |-------------------------------------------------|
 |-------------------------------------------------|
 |--3S5-5-5--5-----5-----5--5--5--5-----5-----5--5-|
 |--3S5-5-5--5-----5-----5--5--5--5-----5-----5--5-|
 |--1S3-3-3--3-----3-----3--3--3--3-----3-----3--3-|

[Absus2] [F5] ~~~~
S +S S S S S E +H
 
 |-----------------------------------------------|
 |-----------------------------------------------|
 |----------------------14h15-12--(12)-----------|
 |--------------15-------------------------------|
 |-12-(12)b13==(12)-12r--------------------------|
 |-----------------------------------------------|

|
| E E S S E. S E E S S
 
 |-----------------------------------------------|
 |-----------------------------------------------|<br /

Important: The song above is NOT stored on the Chordie server. The original song is hosted at www.xguitar.com. Chordie works as a search engine and provides on-the-fly formatting. Chordie does not index songs against artists'/composers' will. To remove this song please click here.

Text color:
Chord color:
Chord grids: 
Font size:    
Page size: 

A A#5 A#5/A A5 Absus2 Am Am7 Bm C#5 Cm Cmaj7 D5 Dm Dm/A E E5 E7 Em Esus4 F F#5 F5 Fmaj7 G G#m G5 G5/D Gbm Gm Gm7
Rate #1 of 2 versions

Login - add to songbook

SHARE PAGE  




You need to log in to post comments