Guitar Tabs, Chords and Lyrics
Major upgrade!! After one year development the new version of Chordie is now online! Please give feedback.


Flying High Again   Ozzy Osbourne

 
 |----------------|----------------|----------x----|
 |----------------|-----------3--3-|-(3)------3----|
 |-0h=2-----2-2---|-----2-(2)-2--0-|-(0)------2----|
 |-0h=2--x--2-2---|-----2-(2)-0--0-|-(0)------0----|
 |-0-(0)-0--0-0---|---x-0-(0)-0----|------2-3------|
 |----------------|---x----------3-|-(3)-----------|
 |----------------|----------------|------------------|--------------x----|
 |----------------|----------------|----------------3-|-(3)--(3)---3-x----|
 |---0-0--5-5p=0--|-2--(2)---2px---|----2-(2)-(2)---0-|-(0)--(0)---2-x----|
 |---0-0--5-5p=0--|-2--(2)---2px---|----2-(2)-(2)---0-|-(0)--(0)---0-x----|
 |---x-x----------|-0---0----0-----|----0-(0)---------|-------2--3--------|
 |----------------|--------3-------|-----------0--2-3-|-(3)--(3)----------|

 


 


 1st Verse


 

 
 |---(2)-----------------------||----------------|
 |-------1p0-1p0---------------||----------------|
 |---------------2p0-----------||-2--2---2-------|
 |-------------------2p0-------||-2--2---2-------|
 |-----------------------3b3.5-||-0--0---0-------|
 |-----------------------------||------3---(3)---|
 |------------------|-------------0-----|
 |----------------3-|-(3)------3--------|
 |------2-(2)-2---0-|-(0)------2--------|
 |------2-(2)-2---0-|-(0)------0-(0)----|
 |------0-(0)-0-----|------2-3----------|
 |--2-3-------0-2-3-|-(3)---------------|
 |-----------------|-----------------------|-----------------|----------------|
 |---x-------------|-----------------------|---x-----------3-|-(3)------3-----|
 |---x-5-5-(5)--0--|-2-2-0---2-------------|---x-2-(2)-2-2-0-|-(0)------2-2---|
 |---x-5-5-(5)--0--|-2-2-x-2-2-5b5.5--(5)\-|---x-2-(2)-2-4-0-|-(0)------0-0---|
 |---x-x-x---------|-0-0-----0-------------|-----0-(0)-0-0---|------2h3-------|
 |-----------------|-----------------------|---------------3-|-(3)------------|
 PM| PM----------| PM PM
 |-------------------|----------------|-----------------|
 |-------------------|----------------|-----------------|
 |--0h2s5-8s7-8s7-5--|-2------2-------|-x-------2---2---|
 |--0h2s5-8s7-8s7-5--|-2------2-x-x-x-|-x-x-x-x-2---2---|
 |-------------------|-0--0-0-0-0-0-0-|-0-0-0-0-0-0-0-0-|
 |-------------------|----------------|-----------------|
 PM--------------|
 |-----------------|-------------------|----------------------|
 |-8----10b10.5----|-------------------|----------------------|
 |-7-----7---------|-5-----------------|-2--------------------|
 |-5-----7---------|-5-(7)-5-----------|-2--------------------|
 |-----------------|---------7-6-5-3h5-|-0--0-0-0-0-0-0-0-0-0-|
 |-----------------|-------------------|----------------------|
 PM----------------|
 |-------------------------|------------|------------||
 |-------------------------|-8----10----|------------||
 |---------------------0-0-|-7-----7----|-5----------||
 |---------------------0-0-|-5-----7----|-5----------||
 |-0-0-0-0-0-0-0-0-0-0-----|------------|--------0---||
 |-------------------------|------------|------------||

 


 


 Pre-chorus


 ~~~~~~~~ PM


 

 
 |------------|-------------------|--------------0-0-|-(0)-----------0-4--|
 |------------|-------------------|-3--3-3-(3)-------|------3-3-(3)--0-5--|
 |-2------4-6-|-(6)--4-2-(2)--4-x-|-2--2-2-(2)-------|------2-2-(2)-------|
 |-4------6-7-|-(7)--6-4-(4)--6-x-|-0----------0-----|------0-0-(0)-------|
 |------------|-------------------|------------------|--------------------|
 |------------|-------------------|------------------|--------------------|

 


 


 ~ ~~~~


 

 
 |-5----x-x-7--9-|--(9)--7-5-(5)--7-5-|
 |-7----x-x-9-10-|-(10)--9-7-(7)--9-7-|
 |---------------|--------------------|
 |---------------|--------------------|
 |---------------|--------------------|
 |---------------|--------------------|
 PM-----------------------------------------|
 |-(5)--------------------------------------------------|
 |-(7)--------------------------------------------------|
 |------------------------------------------------------|
 |------------------------------------------------------|
 |------<7>-<7>-<7>-<7>-<7>-<7>-<7>-<7>-<7>-<7>-<7>-<7>-|
 |------------------------------------------------------|

 


 


 Chorus


 PM|


 

 
 |-------------||--------------|----------------|-----------2-0----|
 |-------------||--------------|--------------3-|-(3)-3-----3-3----|
 |-0-----------||-2--2---2p0---|---x-2-(2)-2--0-|-(0)-0-----2-2----|
 |-0-----------||-2--2-5-2p0---|---x-2-(2)-4--0-|-(0)-0-----0------|
 |-------------||-0------------|---x-0-(0)-0----|-------2-3--------|
 |----17\------||--------------|--------------3-|-(3)--------------|

 


 


 PM


 

 
 |-----------------|------------------|----------------|-----------------|
 |-----------------|------------------|--------------3-|-(3)------3-3----|
 |-------x-x-5--0--|-2--2---<7>-------|-----0h2-2-2--0-|-(0)------2-2----|
 |-------x-x-5--0--|-2--2---<7>-------|-----0h2-2-4--0-|-(0)------0-0----|
 |-------x-x-------|-0--0----x--------|-------0-0-0----|------2-3--------|
 |--17\------------|------3-----12\---|---x----------3-|-(3)-------------|

 


 


 2nd Verse


 

 
 |------------------------------------||----------------|
 |------------------------------------||----------------|
 |----0h5p0h5p0h4p0h4p0h2p0h2p0h2tr0--||-2--2---0h2-2\--|
 |------------------------------------||-2--2---0h2-2\--|
 |------------------------------------||-0--0-----------|
 |------------------------------------||------3---------|
 |----------------|-----------0-----|----------------|---------------|
 |--------------3-|-(3)-x-----3-3---|----------------|----------x\---|
 |---x-2-2-(2)--0-|-(0)-0-----2-2---|---x-0h5-5p0-0--|-2--2---2------|
 |---x-2-2h=4---0-|-(0)-0-----0-----|---x-0h5-5p0-0--|-2--2---2------|
 |---x-0-0-(0)----|-------2h3-------|---x------------|-0--0---0------|
 |--------------3-|-(3)-3-----------|----------------|------3--------|
 |----------------|----------x-----|---------------------|
 |--------------3-|-(3)------3-3---|---------------------|
 |---x-2-(2)-2--0-|-(0)------2-2---|--------7-8s7-8s7-5--|
 |---x-2-(2)-4--0-|-(0)------0-0---|------7---8s7-8s7-5--|
 |---x-0-(0)-0----|------2h3-------|----7----------------|
 |---x----------3-|-(3)------------|--x------------------|

 


 


 PM PM


 

 
 |-----------------------------|
 |-----------------------------|
 |-2-x-x---2----14-21p14----14-|
 |-2-x-4---2-19----------19----|
 |-0-x-0-x-0-------------------|
 |-----------------------------|
 |------------------------------------------|-----------|
 |------------------------------------------|-8----7----|
 |-21p14----14-21p14----14-21p14----14------|-7----7----|
 |-------19----------19----------19---------|-5----7----|
 |------------------------------------------|-----------|
 |-------------------------------------17\--|-----------|
 |-------------------------------|--------------------------|
 |---[5]-[8]-[5]-8-8-------------|--------------------------|
 |-5-----------------[8]b8.5-[7]-|-2----2----14-21p14----14-|
 |-5-----------------------------|-2----2-19----------19----|
 |-------------------------------|-0----0-------------------|
 |-------------------------------|--------------------------|
 |-----------------------------------------|
 |-----------------------------------------|
 |-21p14----14-21p14----14-21p14----0------|
 |-------19----------19----------19---2-4--|
 |-----------------------------------------|
 |-----------------------------------------|

 


 


 Pre-chorus


 ~ ~~~


 

 
 |-----------|---------------||------------|--------------------|
 |-8----7----|---------------||------------|-----------------3--|
 |-7----7----|-5------(5)-x\-||-2------4-6-|-(6)--4-2-(2)--4-2--|
 |-5----7----|-5------(5)-x\-||-4------6-7-|-(7)--6-4-(4)--6-0--|
 |-----------|---------------||------------|--------------------|
 |-----------|---------------||------------|--------------------|
 |-------------------0-0-|-(0)---------------2-4-|
 |-3-----3-3-(3)---3-----|------3h5-3h5p3-3--3-5-|
 |-2-x-x-2-2-(2)-2-------|----------------2------|
 |-0-x-x-0-0-(0)-0-------|-----------------------|
 |-----------------------|-----------------------|
 |-----------------------|-----------------------|

 


 


 ~


 

 
 |-5----5-5-7--9-|--(9)--7-5-(5)--7--|
 |-7----7-7-9-10-|-(10)--9-7-(7)--9--|
 |---------------|-------------------|
 |---------------|-------------------|
 |---------------|-------------------|
 |---------------|-------------------|
 |-5s4s5--------------------------------------|--------------------|
 |-7s6s7--------------------------------------|--------------------|
 |--------------------------------------------|--------------------|
 |----------------------------------------7-7-|--------------------|
 |--------<7>-<7>-<7>-<7>-<7>-<7>-<7>-<7>-x-x-|-9p7-7--------------|
 |--------------------------------------------|--------14-(14)\----|

 


 


 Chorus


 ~~~


 

 
 |---------------|---------------|----------------|----------------|
 |---------------|---------------|----------------|----------------|
 |-2------2-5--7-|-(7)----0--5\--|-2-2-----2-5--7-|-(7)----0--5s4--|
 |-2------2-5--7-|-(7)----0--5\--|-2-2-----2-5--7-|-(7)----0--5s4--|
 |-0------0------|---------------|-0-0-----0------|----------------|
 |----3h4--------|---------------|-----3-4--------|----------------|
 |----------------|---------------|---------------|-------------||
 |----------------|---------------|---------------|-------------||
 |-2-2-----2-5--7-|-(7)----0--5-4-|-2------2-5----|-------------||
 |-2-2-----2-5--7-|-(7)----0--5-4-|-2------2-5--7-|-(7)---------||
 |-0-------0------|---------------|-0------0----5-|-(5)---------||
 |-----3h4--------|---------------|----3-4--------|-------------||

 


 


 Guitar solo


 

 
 |-14-------------14-------------14-------------14-------------|
 |----17p14----------17p14----------17p14----------17p14-------|
 |----------16b18----------16b18----------16b18----------16b18-|
 |-------------------------------------------------------------|
 |-------------------------------------------------------------|
 |-------------------------------------------------------------|
 |-17-16-14-----------------------------------------|
 |----------17-15p14--------------------------------|
 |-------------------17-16p14-----------------------|
 |----------------------------16-14-----------------|
 |----------------------------------16-15p14-15h16--|
 |--------------------------------------------------|

 


 


 ~~~ ~~ PM|


 

 
 |-------------------------------------------14h15-|-14h==15p14----------------|
 |-------------------------------------15h17-------|------------17--(x)\-------|
 |-------------------------14p12-14s16-------------|---------------------------|
 |----------14-16-14-16h17-------------------------|---------------------------|
 |-17p16-17----------------------------------------|---------------------------|
 |-------------------------------------------------|---------------------12-12-|
 PM------------------------|
 |-------------------------------------------------|
 |----------------------------------------------15p|
 |-------------------------------14h16p14h16p14----|
 |-------------------14----16-14-------------------|
 |-------12----16-14----16-------------------------|
 |-14-12----14-------------------------------------|

 


 


 ~~


 

 
 |--------------------------------x---------|
 |-14h15p14h15p14h15p14h15p14-----x-10h14-x-|
 |----------------------------16------------|
 |------------------------------------------|
 |------------------------------------------|
 |------------------------------------------|
 |-10h14p10----------10h15p10----------10h14p10----------10s17-|
 |----------10h14p10----------10h14p10----------10h14p10-------|
 |-------------------------------------------------------------|
 |-------------------------------------------------------------|
 |-------------------------------------------------------------|
 |-------------------------------------------------------------|

 


 


 |-17h19p17h19p17h19p17h19p17-17-(17)\-9h12p9h12-|


 

 
 |-----------------------------------------------|
 |-----------------------------------------------|
 |-----------------------------------------------|
 |-----------------------------------------------|
 |-----------------------------------------------|

 


 


 T T T T T T


 

 
 |-17p12-17p12p9h12-17p12p9h12p9h12-17p12-17p12p9h12-17p12p9h12-|
 |--------------------------------------------------------------|
 |--------------------------------------------------------------|
 |--------------------------------------------------------------|
 |--------------------------------------------------------------|
 |--------------------------------------------------------------|

 


 


 T T T T T T


 

 
 |----------------------------------------------------------------|
 |-18p13-18p13p10h13-18p13-18p13p10h13-18p13p10h13p10-18p13p10h13-|
 |----------------------------------------------------------------|
 |----------------------------------------------------------------|
 |----------------------------------------------------------------|
 |----------------------------------------------------------------|

 


 


 T T T T T T


 

 
 |--------------------------------------------------------------|
 |--------------------------------------------------------------|
 |-19p14-19p14p11h14-19p14-19p14p11h14-19p14p11h14-19p14p11-(x)-|
 |--------------------------------------------------------------|
 |--------------------------------------------------------------|
 |--------------------------------------------------------------|

 


 


 T T T T T


 

 
 |--------------------------------------------------xh4h7p4-|
 |----------------------------------------------------------|
 |----------------------------------------------------------|
 |-20p15-20p15p12h15-20p15-20p15p12h15-20p15-(15)\----------|
 |----------------------------------------------------------|
 |----------------------------------------------------------|

 


 


 T T T T T T T T


 

 
 |-12p7-12p7p4h7-12p7-xp4h7-12p7-12p7p4h7-12p7-12p4h7-|
 |----------------------------------------------------|
 |----------------------------------------------------|
 |----------------------------------------------------|
 |----------------------------------------------------|
 |----------------------------------------------------|

 


 


 T T T T T T


 

 
 |---------------------------------------------------|
 |-13p8-13p8p5h8-13p8p5h8p5-13p8-13p8p5h8-13p8p5h8px-|
 |---------------------------------------------------|
 |---------------------------------------------------|
 |---------------------------------------------------|
 |---------------------------------------------------|

 


 


 T T T T T T


 

 
 |------------------------------------------------------|
 |------------------------------------------------------|
 |-14p9-14p9p6h9-14p9-xp9p6h(9)-14p9p6h9p6h9-14p9p6h9p6-|
 |------------------------------------------------------|
 |------------------------------------------------------|
 |------------------------------------------------------|

 


 


 T T T T T


 

 
 |---------------------------------------------------||
 |---------------------------------------------------||
 |---------------------------------------------------||
 |-15p10-15p10p7h10-15p10-15p10p7h10-15p10p7---------||
 |-------------------------------------------8-(8)\--||
 |---------------------------------------------------||

 


 


 Chorus


 ~~~ ~~~


 

 
 |-----------------------|-----------------|----------------|----------------|
 |-----------------------|-----------------|----------------|----------------|
 |-2--2-------2-5b5.5--7-|-(7)--5h7-0--5s4-|-2-x-----2-x--7-|-(7)----0--5s4--|
 |-2--2-------2-5b5.5--7-|-(7)--5---0--5s4-|-2-x-----2-x--7-|-(7)----0--5s4--|
 |-0----------0----------|-----------------|-0-0-----0-0----|----------------|
 |----3h4b4.5------------|-----------------|-----3h4--------|----------------|

 


 


 ~~~


 

 
 |----------------|---------------|----------------|--------------------||
 |----------------|---------------|----------------|--------------------||
 |-2-2-2---2-5--7-|-(7)----0--5-4-|-2-2-2---2-5--7-|-(7)----------------||
 |-2-2-2---2-5--7-|-(7)----0--5-4-|-2-2-2---2-5--7-|-(7)----------------||
 |-0-0-----0------|---------------|-0-0-----0----5-|-(5)---/15-(15)\----||
 |-----3h4--------|---------------|-----3h4--------|--------------------||

 


 


 Interlude


 PM PM


 

 
 |--------------------|-----------------|-------------x---|---------------|
 |--------------------|---------------3-|-(3)-3-----3-x---|---------------|
 |-2--2-(2)-2---------|-----2-(2)-----0-|-(0)-0-----2-----|--x\---x\------|
 |-2--4p=2--2---------|-----2-(2)---x-0-|-(0)-0-----0-----|---------------|
 |-0--0-(0)-0---------|-----0-(0)-------|-------2h3-------|---------------|
 |------------3b3.5---|---3-------0-2-3-|-(3)-x-----------|------------3--|

 


 


 PM--|


 

 
 |------------------|---------------|-----------------|-----------------||
 |------------------|----------3--3-|-(3)-------3-3---|-----------------||
 |-2--2p0-2---------|----2-(2)-2--0-|-(0)-------2-2---|----0h5p0-5--0---||
 |-2--2p0-2---------|----2-(2)-4--0-|-(0)-----2-0-0---|----0h5p0-5--0---||
 |-0--0---0---------|----0-(0)-0----|-----2-3---------|-----------------||
 |----------3b3.5---|-------------3-|-(3)-------------|-----------------||

 


 


 3rd Verse


 PM| PM|


 

 
 |----------------------|-----------------|------------x---|
 |----------------------|---------------3-|-(3)------3-3---|
 |-x-----2-2-------2----|-----2-(2)-----0-|-(0)------2-2---|
 |-x-----2-2-------2----|-----2-(2)-----0-|-(0)------0-----|
 |-------0-0------------|-----0-(0)-------|------2h3-------|
 |-3b3.5-----3b3.5------|---x-------0-2-3-|-(3)------------|
 PM-----------------|
 |----------------------------|-----------------|
 |----------------------------|-----------------|
 |----------------------------|-2-(x)-2---2p0---|
 |----9s10s9-7----------------|-2-(x)-2---2p0---|
 |-------------10-9-7-5-------|-0-----0---0-----|
 |----------------------8-7-5-|---------3-------|
 PM| PM---------------|
 |-----------------|----------------|---------------|------------------------|
 |-------------3-3-|-(3)------3-3---|---------------|------------------------|
 |-----2-(2)---2-0-|-(0)------2-2---|--0-8s7-8s7-5--|-2--(2)-(2)-x-----------|
 |-----2-(2)---0-0-|-(0)------0-0---|--0-8s7-8s7-5--|-2--(2)-(2)-x-(7)-7-7---|
 |-----0-(0)-------|------2-3-------|--x------------|-0---0---0--0--0------0-|
 |---x-------0-2-3-|-(3)------------|---------------|------------------------|
 PM--------------------|
 |-------------------------|-----------|---------------------------------|
 |-------------------------|-8----7----|--------------17b17.5-17b17.5----|
 |-----------------------x-|-7----7----|-5----5-------17b17.5-17b17.5----|
 |-7-7---7-7---7-7---7-x-x-|-5----7----|-5----5s19-19-----------------19-|
 |-----0-----0-----0-----0-|-----------|---------------------------------|
 |-------------------------|-----------|---------------------------------|
 PM-------| PM----------|
 |-------------------|-------------------|------------|-----------------||
 |-------------------|-------------------|-8----10----|-----------------||
 |-2-(2)---------5s4-|-2---x---x---x-----|-7-----7----|-5----(5)-2-5s4--||
 |-2-(2)-x---x---5s4-|-2---x---2---2-(x)-|-5-----7----|-5----(5)-2-5s4--||
 |-0--0--0-0-0-0-----|-0-0-0-0-0-4-0-----|------------|-----------------||
 |-------------------|-------------------|------------|-----------------||

 


 


 ~~~~~~~~ ~~~~~~~~


 

 
 |---------------|---------------|---------------------|----------------|
 |---------------|---------------|---------------------|----------------|
 |-2--2p0-2-5--7-|-(7)----0--5s4-|-2--------2-(2)-5--7-|-(7)----0--5s4--|
 |-2--2p0-2-5--7-|-(7)----0--5s4-|-2--------2-(2)-5--7-|-(7)----0--5s4--|
 |-0------x------|---------------|-0-------------------|----------------|
 |---------------|---------------|----3b3.5------------|----------------|

 


 


 Outro


 ~~~~~~~~


 

 
 |---------------|----------------||---------------|---------15s17-17s15--|
 |---------------|----------------||---------------|---------15s17-17s15--|
 |-2------2-5--7-|-(7)----(7)/----||-2------2-5--7-|-(7)---x-12s14-14s12--|
 |-2------2-5--7-|-(7)----(7)/----||-2------2-5--7-|-(7)---x-12s14-14s12--|
 |-0------0------|----------------||-0------0------|----------------------|
 |----3-4--------|----------------||----3-4--------|----------------------|

 


 


 ~~~~~~~~


 

 
 |---------------|---------15s17-17s15/-|
 |---------------|---------15s17-17s15/-|
 |-2------2-5--7-|-(7)---x-12s14-14s12/-|
 |-2------2-5--7-|-(7)---x-12s14-14s12/-|
 |-0------0------|----------------------|
 |----3-4--------|----------------------|

 


 


 ~~~~~~~~


 

 
 |-/17\--------------|---------15s17-17s15--|
 |-/17\--------------|---------15s17-17s15--|
 |-/14\-------2-5--7-|-(7)---x-12s14-14s12--|
 |-/14\-------2-5--7-|-(7)---x-12s14-14s12--|
 |------0-x---0------|----------------------|
 |------0-3-4--------|----------------------|
 |----------------|------------|--------------|----------------|-----*|
 |----------------|------------|--------------|----------------|-----*|
 |-2-2-----2-5--7-|-(7)--------|-(7)----------|-2-2-x---2-2-x--|-----*|
 |-2-2-----2-5--7-|-(7)--------|-(7)----------|-2-2-x---2-2-x--|-----*|
 |-0-0-----0------|------------|----------x\--|-0-0-----0-0----|-----*|
 |-----3-4--------|------------|----------x\--|-----3p0-----3--|-----*|

 


 


 Tablature Legend


 

 
 ----------------

 


 h - hammer-on


 p - pull-off


 b - bend


 pb - pre-bend


 r - bend release (if no number after the r, then release immediately)


 /\ - slide into or out of (from/to "nowhere")


 s - legato slide


 S - shift slide


 <n> - natural harmonic


 [n] - artificial harmonic


 n(n) - tapped harmonic


 ~ - vibrato


 tr - trill


 T - tap


 TP - trem. picking


 PM - palm muting


 \n/ - tremolo bar dip; n = amount to dip


 \n - tremolo bar down


 n/ - tremolo bar up


 /n\ - tremolo bar inverted dip


 = - hold bend; also acts as connecting device for hammers/pulls


 <> - volume swell (louder/softer)


 x - on rhythm slash represents muted slash


 o - on rhythm slash represents single note slash


 


 Misc Legend


 

 
 -----------


Important: The song above is NOT stored on the Chordie server. The original song is hosted at www.xguitar.com. Chordie works as a search engine and provides on-the-fly formatting. Chordie does not index songs against artists'/composers' will. To remove this song please click here.

This song is displayed as text-only. Transposing and tuning is only available for chordpro-songs.
Rate #2 of 5 versions

Login - add to songbook

SHARE PAGE  




You need to log in to post comments