Guitar Tabs, Chords and Lyrics
Major upgrade!! After one year development the new version of Chordie is now online! Please give feedback.


Steal Away (The Night)   Ozzy Osbourne

 
 |-----------------|-----------------|-----------------|-------------------|
 |-----------------|-----------------|-----------------|-------------------|
 |-----9-----7-----|-9-----7-----9\--|-----5-----3-----|-------4-(4)-4-----|
 |-----9-----7-----|-9-----7-----9\--|-----5-----3-----|-------4-(4)-4-----|
 |-----------------|-----------------|-3-3-------------|-4s3-4-2-(2)-2-----|
 |-0-0---7-9---9-7-|---7-9---9-7-----|-------3-5---5p3-|-2s1-2---------3p2-|
 |-----------------|-----------------|-----------------|------------------||
 |-----------------|-----------------|-----------------|------------------||
 |-----9-----7-----|-9-----7-----9\--|-----5-----3-----|-------4-(4)------||
 |-----9-----7-----|-9-----7-----9\--|-----5-----3-----|-------4-(4)------||
 |---7-------------|-----------------|-3-3-------------|-4s3-4-2-(2)------||
 |-0-----7-9---9-7-|---7-9---9-7-----|-------3-5---5-3-|-2s1-2--------3\--||

 


 


 1st Verse


 PM PM| PM| PM| ~~ PM|


 

 
 |----------------|------------------|-----------------|---------------|
 |----------------|------------------|----11s12----10--|-12----10------|
 |----9-----9-----|-9-----9------7s9-|----11s12----11--|-12----11------|
 |----9-----9-----|-9-----9-9----7s9-|-0---------------|---------------|
 |----------------|---------9h11-----|-----------------|---------------|
 |-0----0-0---0-0-|---0-0------------|-----------------|-----------0-2-|

 


 


 PM| ~~~


 

 
 |-3--------|-----------------|-------------------|--------|
 |-3--------|-----------------|-------------------|--------|
 |-0--------|-----------------|-4---4-(4)---[2]b6-|-(2)----|
 |-0--------|-----------------|-4---4-(4)---------|--------|
 |----------|-----3-2-0-------|-2---2-(2)---------|--------|
 |-3--------|-0-3-------3-2-0-|-------------------|--------|

 


 


 PM PM| PM PM ~~ ~~


 

 
 |---------------|------------------|--------------|---------------|
 |---------------|------------------|--------------|-12----10------|
 |----9-----7--x-|---9--7-(7)---7h9-|----12----11--|-12----11------|
 |----9-----7--x-|---9--7-(7)---7h9-|-0--12----12--|---------------|
 |---------------|------------------|--------------|---------------|
 |-0----0-0------|-0----------0-----|--------------|-----------x\--|

 


 


 PM|


 

 
 |-3--------|-----------------|------------------|----------------||
 |-3--------|-----------------|------------------|----------------||
 |-0--------|-----------------|-4---4-(4)--4-<5>-|-(<5>)----------||
 |-0--------|-----------------|-4---4-(4)--------|----------------||
 |----------|-----3-2-0-------|-2----------------|----------------||
 |-3--------|-0-3-------3-2-0-|------------------|-------------x\-||

 


 


 Chorus


 

 
 PM----------------| PM--|
 |------------------|-----------------|------------------|-------------------|
 |-----9--(9)-------|-9---------------|-----9--(9)-------|-9-----------------|
 |-----9--(9)-11-9--|-9-----9---------|-----9--(9)-------|-9-------9---------|
 |-----9--(9)--9-9--|-9---7-9-9-7-6---|-----9--(9)-9-----|-9---7h9---9-7-6---|
 |-----7--(7)----7--|-7-7-----------7-|-----7--(7)-7-7h9-|-7-7-------------7-|
 |-0-0--------------|-----------------|-0-0--------------|-------------------|

 


 


 PM|


 

 
 |------------------|-----------------|
 |-----9--(9)-------|-----------------|
 |-----9--(9)-11-9--|-------9---------|
 |-----9--(9)--9-9--|-----9---9-7s6---|
 |-----7--(7)----7--|-6s7-----------7-|
 |-0-0--------------|-----------------|
 |-7-7-7S8-8-8S9-9-9S10-10-10S|=11-11-11S12-12-12S13-13-13S14\----|
 |----------------------------|-----------------------------------|
 |-4-4-4S5-5-5S6-6-6S=7--7--7S|==8--8--8S=9--9--9S10-10-10S11\----|
 |----------------------------|-----------------------------------|
 |----------------------------|-----------------------------------|
 |----------------------------|-----------------------------------|
 |-----------------|-----------------|-----------------|----------------||
 |-----------------|-----------------|-----------------|----------------||
 |-4-----2-----4---|---2-----4---2---|-4-----2-----4---|---2------------||
 |-4-----2-----4---|---2-----4---2---|-4-----2-----4---|---2------------||
 |---0-0---0-0---0-|-0---0-0---0---0-|---0-0---0-0---0-|-0---0-0--------||
 |-----------------|-----------------|-----------------|---------19\----||

 


 


 2nd Verse


 PM| PM| PM| PM| ~~ ~~


 

 
 |-----------------|-------------------|-----------------|---------------|
 |-----------------|-------------------|-------12----10--|-12----10------|
 |-----9-----7-----|-9-----7-(7)---7h9-|-------12----11--|-12----11------|
 |-----9-----7-----|-9-----7-(7)---7h9-|-0-(0)-----------|---------------|
 |-----------------|-------------------|-----------------|---------------|
 |-0-0---0-0---0-0-|---0-0-------0-----|-----------------|-----------x\--|

 


 


 PM| ~~~


 

 
 |-3--------|-----------------|----------------|-3p2p0-------------------|
 |-3--------|-----------------|-------------0--|-------3p2p0-------------|
 |-0--------|-----------------|-4----4-(4)-----|-------------3p2p0-[2]---|
 |-0--------|-----------------|-4--x-4-(4)-----|-------------------------|
 |----------|-----3-2-0-------|-2--x-2-(2)-----|-------------------------|
 |-3--------|-0-3-------3-2-0-|----------------|-------------------------|

 


 


 PM| PM| PM PM--| ~~ ~~


 

 
 |----------------|-----------------|--------------|---------------|
 |----------------|---------8p7-8\--|----12----10--|-12----10------|
 |-----9-----9----|-9-------7---7\--|----12----11--|-12----11------|
 |-----9-----9----|-9---------------|-0------------|-----------x\--|
 |----------------|-----------------|--------------|-----------x\--|
 |-0-0---0-0----0-|---0-0-0---------|--------------|---------------|

 


 


 PM|


 

 
 |-3--------|-----------------|--------------|---------<5>-----------------||
 |-3--------|-----------------|--------------|-----<5>-----<7>-(<7>)-------||
 |-0--------|-----------------|-4--4-4-4---0-|-<5>-------------------<7>---||
 |-0--------|-----------------|-4--4-4-4-----|-----------------------------||
 |----------|-----3-2-0-------|-2--2-2-2-----|-----------------------------||
 |-3--------|-0-3-------3-2-0-|--------------|-----------------------------||

 


 


 Chorus


 

 
 PM----------------|
 |------------------|-----------------|-----------------|---------------------|
 |-----9--(9)-------|-9---------------|-----9--(9)------|---------------------|
 |-----9--(9)-------|-9---9-9-9-------|-----9--(9)------|---------------------|
 |-----9--(9)-------|-9-7-9-9-9-7-6---|-----9--(9)------|---------------------|
 |-----7--(7)-7h9p7-|-7-------------7-|-----7--(7)-9--7-|-9s11s9s11s9s11s9s11-|
 |-0-0--------------|-----------------|-0-0-------------|---------------------|

 


 


 PM--|


 

 
 |------------------|-----------------|
 |-----9--(9)-------|-9---------------|
 |-----9--(9)-------|-9-----9---------|
 |-----9--(9)-x-----|-9---9---9-7-6---|
 |-----7--(7)-x-9p7-|-7-7-----------7-|
 |-0-0--------------|-----------------|
 |-7-7-7S8-8-8S9-9-9S10-10-10S|=11-11-11S12-12-12S13-13-13---------||
 |----------------------------|------------------------------------||
 |-4-4-4S5-5-5S6-6-6S=7--7--7S|==8--8--8S=9--9--9S10-10-10---------||
 |----------------------------|------------------------------------||
 |----------------------------|------------------------------------||
 |----------------------------|----------------------------x-12\---||
 |-----------------|-----------------|-----------------|-------------------|
 |-----------------|-----------------|-----------------|-------------------|
 |-----9-----7-----|-9-----7-----9\--|-----5-----3-----|-------4-(4)-4-----|
 |-----9-----7-----|-9-----7-----9\--|-----5-----3-----|-------4-(4)-4-----|
 |-----------------|-----------------|-3-3-------------|-------2-(2)-2-----|
 |-0-0---7-9---9-7-|---7-9---9-7-----|-------3-5---5-3-|-3-2p0---------3p2-|
 |----------------------|------------------|
 |----------------------|------------------|
 |-----9-----7----------|-9-----7-----12\--|
 |-----9-----7----------|-9-----7-----12\--|
 |----------------------|------------------|
 |-0-0---7-9---9h10p9-7-|---7-9---9-7------|
 |-----------------|----------------------||
 |-----------------|----------------------||
 |-----5-----3-----|-------4-(4)-----9-9--||
 |-----5-----3-----|-------4-(4)-----9-9--||
 |-3-3-------------|-4s3-4-2-(2)--x\-7-7--||
 |-------3-5---5-3-|-2s1-2--------x\-0-0--||
 |------------|-----------------3-|-(3)----------|--------------------|
 |------------|-12---10-(10)----3-|-(3)----------|-15---14-(14)-------|
 |-9------x/--|-11----9--(9)----0-|-(0)------x-x-|-14---14-(14)-------|
 |-9------x/--|--9----7--(7)--x-0-|-(0)------x-x-|-14---14-(14)--16\--|
 |-7------x/--|---------------x---|----------x-x-|-12---12-(12)--14\--|
 |-0----------|-----------------3-|-(3)----------|--------------------|

 


 


 ~ ~~~~~~~~


 

 
 |------------|-------------------|------------|
 |------------|-12---10-(10)--7-8-|-(8)--------|
 |-----9------|-11----9--(9)--6-7-|-(7)--------|
 |-\9--9------|--9----7--(7)--4-5-|-(5)--------|
 |-\7---------|-------------------|------------|
 |--0---------|-------------------|------------|

 


 


 Guitar solo


 ~~~~


 

 
 |----------------------------||-------------13b15-|
 |-15---14-(14)------10-10s11-||-(11)--------------|
 |-14---14-(14)-(12)-10-11s12-||-(12)------0-------|
 |-14---14-(14)--12-----------||-------------------|
 |-12---12-(12)---------------||-------------------|
 |----------------------------||-------------------|

 


 


 ~~~~~~~~~


 

 
 |-(13)-13-10----------------|----------------------------|
 |------------13-11----13-11-|-(11)---(11)\-3h4p3-6p3h6p3-|
 |------------------12-------|----------------------------|
 |---------------------------|----------------------------|
 |---------------------------|----------------------------|
 |---------------------------|----------------------------|

 


 


 ~ PM


 

 
 |----------|-3-----------------------|---------------------------|
 |----------|---5-2-5p2---2-----------|---------------------------|
 |----------|-----------3---3---3-----|---------------------------|
 |----------|-----------------5---5-2-|-5p2---2-------------------|
 |-4--------|-------------------------|-----4---4-1-4p1---1-------|
 |----------|-------------------------|-----------------3---3p1/--|
 |--------------------------|
 |--------------------------|
 |--------------------6h9p6-|
 |--------------5h8p5-------|
 |--------4h7p4-------------|
 |-/3h6p3-------------------|
 |--------9h12p9h12p9h12p9h12p9s7-------|------------------7------|
 |-8h11p8-------------------------10b12-|-(10)---(10)-(10)---10-7-|
 |--------------------------------------|-------------------------|
 |--------------------------------------|-------------------------|
 |--------------------------------------|-------------------------|
 |--------------------------------------|-------------------------|

 


 


 ~


 

 
 |----------------------|-----------------17b20==|
 |----------------------|--------------/x--------|
 |-10-9p7b7.5-----------|------------------------|
 |------------9-7-------|-----9--(9)\------------|
 |----------------9p8-7-|-7s6--------------------|
 |----------------------|------------------------|

 


 


 ~~~~~~~~~~


 

 
 |-(17)----(17)r\------|---------------------|-----------------|
 |---------------------|---------------------|-----------------|
 |-------------------2-|-(2)b4=======(2)-(2)-|-(2)r===(2)---x/-|
 |-----------------x---|---------------------|-----------------|
 |---------------------|---------------------|-----------------|
 |---------------------|---------------------|-----------------|
 |----7--------------|-------------------||-----------------|-----------------|
 |------10-7---------|-------------------||-----------------|-----------------|
 |-----------9-7-----|-------------------||-4-----2-----4---|---2-----4---2---|
 |-/8------------9-7-|-------------------||-4-----2-----4---|---2-----4---2---|
 |-------------------|-9-8-7-------------||---0-0---0-0---0-|-0---0-0---0---0-|
 |-------------------|-------10p9-8-7-6\-||-----------------|-----------------|
 |-----------------|-----------------|-----------------|-----------------|
 |-----------------|-----------------|-----------------|-----------------|
 |-4-----2-----4---|---2-----4---2---|-4-----2-----4---|---2-----4---2---|
 |-4-----2-----4---|---2-----4---2---|-4-----2-----4---|---2-----4---2---|
 |---0-0---0-0---0-|-0---0-0---0---0-|---0-0---0-0---0-|-0---0-0---0---0-|
 |-----------------|-----------------|-----------------|-----------------|
 |-----------------|------------||-----------------|-----------------|
 |-----------------|------------||-----------------|-----------------|
 |-4-----2-----4---|------------||-----9-----7-----|-9-----7-----9\--|
 |-4-----2-----4---|------------||-----9-----7-----|-9-----7-----9\--|
 |---0-0---0-0---0-|------------||-----------------|-----------------|
 |-----------------|-19\--------||-0-0---7-9---9-7-|---7-9---9-7-----|
 |-----------------|------------------|-----------------|-----------------|
 |-----------------|------------------|-----------------|-----------------|
 |-----5-----3-----|-------4-(4)-x\---|-----9-----7-----|-9-----7-----9\--|
 |-----5-----3-----|-------4-(4)------|-----9-----7-----|-9-----7-----9\--|
 |-3-3-------------|-4-3-4-2-(2)------|-----------------|-----------------|
 |-------3-5---5-3-|-2-1-2------------|-0-0---7-9---9-7-|---7-9---9-7-----|

 


 


 3rd Verse


 PM| PM| PM| PM| PM|


 

 
 |-----------------|-------------------||-----------------|-----------------|
 |-----------------|-------------------||-----------------|-----------------|
 |-----5-----3-----|-------4-(4)-------||-----9-----7-----|-9-----7-----7h9-|
 |-----5-----3-----|-------4-(4)-------||-----9-----7-----|-9-----7-----7h9-|
 |-3-3-------------|-4-3-4-2-(2)-------||-----------------|-----------------|
 |-------3-5---5-3-|-2-1-2-------x-2h3-||-0-0---0-0---0-0-|---0-0---0-0-----|

 


 


 ~~ ~~ PM|


 

 
 |--------------|------------|-3--------|-----------------|
 |--------------|-12---------|-3--------|-----------------|
 |----12----11--|-12----2----|-0--------|-----------------|
 |-0--12----12--|-------0----|-0--------|-----------------|
 |--------------|------------|----------|-----3-2-0-------|
 |--------------|------------|-3--------|-0-3-------3-2-0-|

 


 


 ~~ PM| PM| PM| PM PM|


 

 
 |------------|-18-------18--------------|-----------------|----------------|
 |------------|----17-------17-----------|-----------------|----------------|
 |-4-------/x-|-------16-------16--(16)\-|-----9-----7-----|-9----7-----7h9-|
 |-4----------|--------------------------|-----9-----7-----|-9----7-----7h9-|
 |-2----------|--------------------------|-----------------|----------------|
 |------------|--------------------------|-0-0---0-0---0-0-|----0---0-0-----|

 


 


 ~~~~~~~~ ~~~


 

 
 |------------------|----------------|-3-----(3)--(3)-|--(3)--(3)--(3)--(3)-|
 |----12--(12)-10---|-/12----10------|-3-----(3)--(3)-|--(3)--(3)--(3)--(3)-|
 |----12--(12)-11---|-/12----11------|-0-----(0)--(0)-|--(0)--(0)--(0)--(0)-|
 |-0----------------|------------2h4-|-0-----(0)--(0)-|--(0)--(0)--(0)--(0)-|
 |------------------|----------------|----------------|---------------------|
 |------------------|----------------|-3-----(3)--(3)-|--(3)--(3)--(3)--(3)-|

 


 


 ~~~~~~~~~~~~~


 

 
 |---------------|-------------------------||
 |---------------|-------------------------||
 |-4---4-(4)--4--|-------------------------||
 |-4---4-(4)--4--|-------------------------||
 |-2---2-(2)--2--|--/16b17====(16)---(16)\-||
 |---------------|-------------------------||

 


 


 Chorus


 PM| PM----|


 

 
 |------------------|-----------------|
 |-----9--(9)-9-----|-----------------|
 |-----9--(9)-9-----|-----9-9-9-------|
 |-----9--(9)-9-----|---7-9-9-9-7-----|
 |-----7--(7)-7-7h9p|=7-----------7-7-|
 |-0-0--------------|-----------------|
 PM| PM--------------|
 |------------------|-------------------|-------------------|------0-(0)-------|
 |-----9--(9)-------|-------------------|-----9--(9)--------|-9----0-(0)-------|
 |-----9--(9)-------|-------9-9-9-------|-----9--(9)-11p9---|-9--9-------9-----|
 |-----9--(9)-9-----|-------9-9-9-7-----|-----9--(9)--9-----|-9--9---------9---|
 |-----7--(7)-7-9p7-|-(7)-x---------7-7-|-----7--(7)------7-|-7--7-----------7-|
 |-0-0--------------|-------------------|-0-0---------------|------------------|
 |-7-7-7S8-8-8S9-9-9S10-10-10S|=11-11-11S12-12-12S13-13-13S14-14\-|
 |----------------------------|-----------------------------------|
 |-4-4-4S5-5-5S6-6-6S=7--7--7S|==8--8--8S=9--9--9S10-10-10S11-11\-|
 |----------------------------|-----------------------------------|
 |----------------------------|-----------------------------------|
 |----------------------------|-----------------------------------|
 PM--------------|
 |-----------------|-------------------|------------------|------------------|
 |----9--(9)-------|-------------------|-----9--(9)-------|------------------|
 |----9--(9)-------|-------9-9-9-------|-----9--(9)-------|------------------|
 |----9--(9)-------|-------9-9-9-7-6---|-----9--(9)-9-----|------7h9---------|
 |----7--(7)-7h9p7-|-(7)-7-----------7-|-----7--(7)-7h9p7-|-(7)--7-------7h9-|
 |-0---------------|-------------------|-0-0--------------|----------7h9-----|

 


 


 PM| ~~~~~~~~~~~~~


 

 
 |------------------|------0-(0)------|------------------|----------------|
 |-----9--(9)-9-----|-9----0-(0)------|-19b22----(19)----|-(19)-----------|
 |-----9--(9)-9-----|-9--9------------|------------------|----------------|
 |-----9--(9)-9-----|-9--9-------9----|------------------|----------------|
 |-----7--(7)-7-7h9-|-7--7---------7--|------------------|----------------|
 |-0-0--------------|-----------------|------------------|---------17\----|

 


 


 PM----|


 

 
 |-----------------|-----------------|------------------|------0-(0)-0-----|
 |----9--(9)-------|-9---------------|-----9--(9)-------|------0-(0)-0-----|
 |----9--(9)-------|-9-----9---9-----|-----9--(9)-------|-9--9-------------|
 |----9--(9)-9-----|-9-7h9---9---7---|-----9--(9)-------|-9--9---------7s6-|
 |----7--(7)-7h9-7-|-7-------------9-|-----7--(7)-7h9px-|-7--7-------------|
 |-0---------------|-----------------|-0-0--------------|------------------|

 


 


 PM|


 

 
 |------------------|-------0---------|---------------|---------------|
 |-----9--(9)-------|-------0---------|---------------|---------------|
 |-----9--(9)-------|-9---9---9---9---|-4---5-(5)--6--|-(6)-7---8--8--|
 |-----9--(9)-------|-9-9-9-----9-7s6-|-4---5-(5)--6--|-(6)-7---8--8--|
 |-----7--(7)-7h9p7-|-7-7-------------|-2---3-(3)--4--|-(4)-5---6--6--|
 |-0-0--------------|-----------------|---------------|---------------|
 |----------|-----*|
 |----------|-----*|
 |-9--------|-----*|
 |-9--------|-----*|
 |-7--------|-----*|
 |----------|-----*|

 


 


 Tablature Legend


 

 
 ----------------

 


 h - hammer-on


 p - pull-off


 b - bend


 pb - pre-bend


 r - bend release (if no number after the r, then release immediately)


 /\ - slide into or out of (from/to "nowhere")


 s - legato slide


 S - shift slide


 <n> - natural harmonic


 (n) - artificial harmonic


 n(n) - tapped harmonic


 ~ - vibrato


 tr - trill


 T - tap


 TP - trem. picking


 PM - palm muting


 \n/ - tremolo bar dip; n = amount to dip


 \n - tremolo bar down


 n/ - tremolo bar up


 /n\ - tremolo bar inverted dip


 = - hold bend; also acts as connecting device for hammers/pulls


 <> - volume swell (louder/softer)


 x - on rhythm slash represents muted slash


 o - on rhythm slash represents single note slash


 


 Misc Legend


 

 
 -----------


Important: The song above is NOT stored on the Chordie server. The original song is hosted at www.xguitar.com. Chordie works as a search engine and provides on-the-fly formatting. Chordie does not index songs against artists'/composers' will. To remove this song please click here.

This song is displayed as text-only. Transposing and tuning is only available for chordpro-songs.
Rate #4 of 4 versions

Login - add to songbook

SHARE PAGE  




You need to log in to post comments