Guitar Tabs, Chords and Lyrics
Major upgrade!! After one year development the new version of Chordie is now online! Please give feedback.


10â??s   Pantera

 
 ||----------------------------2--|-----------------------2--||
 ||----------------------------2--|-----------------------2--||
 ||----------------------------2--|-----------------------2--||
 ||--4-4b--4--4--4--4--4-------4--|--4-4b--4--4--4--4--4--4--||
 ||-----------------------4-------|-----------------------4--||
 ||-----------------------2-------|-----------------------2--||

 


 


 *CHORUS*


 

 
 ||------------------------|-----------------------------|
 ||------------------------|-----------------------------|
 ||------------------------|--------------------0--------|
 ||----------2--4b-----(4)-|----------2-2-(2)-----2-(2)r-|
 ||--------2---------------|--------2--------------------|
 ||-0--2/4-----------------|-0--2/4----------------------|
 |------------------------|-----------------------------||
 |------------------------|-----------------------------||
 |------------------------|-----------------------------||
 |----------2--4b-----(4)-|----------2-2-(2)-------(2)r-||
 |--------2---------------|--------2--------------------||
 |-0--2/4-----------------|-0--2/4----------------------||

 


 


 *BRIDGE*


 Gtr. 2 (Acoustic)


 

 
 |------------------------------0-----|
 |------3--------3-----3----------3---|
 |--------0----0---------0----------0-|
 |---4------------------------4-------|
 |-2----------------------------------|
 |-----------2------3-------0---------|

 


 


 Gtr.3


 

 
 |---------|-------------|--------------------------|
 |-----11b-|-(11)\7--8\3-|-/12~~----7--10-(10)b~~~~-|
 |---------|-------------|--------------------------|
 |---------|-------------|--------------------------|
 |---------|-------------|--------------------------|
 |---------|-------------|--------------------------|

 


 |


 |Gtr.4


 

 
 |---------|-------------|--------------------------|
 |---------|-------------|--------------------------|
 |-----10b-|-(10)\6--7\2-|-/11~~----6--2b~~~~-------|
 |---------|-------------|--------------------------|
 |---------|-------------|--------------------------|
 |---------|-------------|--------------------------|

 


 


 *SOLO*


 

 
 |----------------------------------|------------------------------------|---------------12----|
 |----------------------------------|------------------------------------|-10------10------12b-|
 |-9b-r-b------12p9----(9r)p7-9b----|-7~~----9-9p7---7b-----7~~---x--/11-|------/11------------|
 |----------------------------------|--------------9----9p7--------------|---------------------|
 |----------------------------------|------------------------------------|---------------------|
 |----------------------------------|------------------------------------|---------------------|
 |------------------------------|--------------------------------------------|
 |-(12r)--10h12-----10--7---(7)-|-17b-r-b-------(17r)--x-17b~~---15-17b--15b-|
 |-------------11b------9b--(9)-|--------------------------------------------|
 |------------------------------|--------------------------------------------|
 |------------------------------|--------------------------------------------|
 |------------------------------|--------------------------------------------|
 |--------------------------------------------------------------------------------|
 |-17-17p15----15-15--------------------------------------------------------------|
 |----------16-------16p14-16-16p14----14-14--------------------------------------|
 |----------------------------------16-------16p14-16-16p15----15-15p14----14\12*-|
 |----------------------------------------------------------17----------16--------|
 |--------------------------------------------------------------------------------|
 |-----------------------------------------------------|
 |-----------------------------------------------------|
 |------------------[7]----------[7]-------------------|
 |-(12)*----(12)---------9-----------9p7---7-----------|
 |---------------------------------------9----9\7---5b-|
 |-----------------------------------------------------|
 |---------------------------------------------------------------------------------------|
 |---------------------------------------14h15p14h15p14--14-17p14-17p14---15p14-15p14----|
 |--------------------14----16--14--16b-----------------------------------------------17-|
 |------12----14-/16-----16--------------------------------------------------------------|
 |-/14-----14----------------------------------------------------------------------------|
 |---------------------------------------------------------------------------------------|
 |-----------------------14---------------------17b~~---(17r)b~~---------(17)\----|
 |-14p13-------------14------17p14------------------------------------------------|
 |-------16p14-16b----------------16b--(16r)p14-----------------------------------|
 |--------------------------------------------------------------------------------|
 |--------------------------------------------------------------------------------|
 |--------------------------------------------------------------------------------|

 


 |


 |Gtr. 2


 

 
 |--------------------------------------------------0---------------------0-------|
 |----------------------------------3-----------------3------------3--------3---3-|
 |-----------------------------------------------0------0------------0--------0---|
 |-----------------4--------------------------------------------4-----------------|
 |--------------------------------------------------------------------------------|
 |-3-------------------------------------------------------2----------------------|
 |-22~~--------------------------------------------------------------------|
 |------------------22~~---------20p19-20p19-20b~~-----------------------x-|
 |-------------------------------------------------------------------------|
 |-------------------------------------------------------------------------|
 |-------------------------------------------------------------------------|
 |-------------------------------------------------------------------------|

 


 |


 |Gtr. 2


 

 
 |-------------------------------------------------------------------------|
 |-----7----------------7---------------------7---------------5------------|
 |---------7---7------------7---7-----------------7---7------------6-------|
 |--0-------------------------------------------------------------------7--|
 |-------------------4------------------------------------0----------------|
 |--------------------------------------7----------------------------------|
 |-22b----------(22r)~~-------22p19-22p19-------------------------------------------|
 |----------------------------------------22p19-------------------------------------|
 |----------------------------------------------22p21p19-22p21p19-------------------|
 |----------------------------------------------------------------21p19-------------|
 |----------------------------------------------------------------------21p20p19----|
 |-------------------------------------------------------------------------------22-|

 


 |


 |Gtr. 2


 

 
 |-----------------0----------------------------------------------------------------|
 |---------3----------3--------------------3--------------------------3-------------|
 |------------0----------0--------------------0-------------------------------4-----|
 |------4-------------------4----------4---------------------4----------------------|
 |---------------------------------------------------1------------------------------|
 |--3------------------------------2------------------------------------------------|
 |--------------------------------------------|--------------------------------------|
 |--------------------------------------------|--------------------------------------|
 |--------------------------------------------|--------------------------------------|
 |--------------------------------------------|--------------------------------------|
 |--------------------------------------------|--------------------------------------|
 |-19~~-------------(19)\--------22---(22)\---|--22---(22)\----22--(22)\-------------|


Important: The song above is NOT stored on the Chordie server. The original song is hosted at www.xguitar.com. Chordie works as a search engine and provides on-the-fly formatting. Chordie does not index songs against artists'/composers' will. To remove this song please click here.

This song is displayed as text-only. Transposing and tuning is only available for chordpro-songs.
Rate #2 of 2 versions

Jango Player

Login - add to songbook

SHARE PAGE  




You need to log in to post comments