Guitar Tabs, Chords and Lyrics
Server problems seems to be fixed. Chordie has been experiencing problems with songs disappearing. These issues now seems to be fixed, but still verifying the fix. If you find anything strange, please email admin@chordie.com.


No Good (Attack the Radical)   Pantera

 
 |-----------------------------------------------------------------------------|
 |-----------------------------------------------------------------------------|
 |-----------------------------------------------------------------------------|
 |-------------5~-------------------5~-----------------------------------------|
 |-------0-5-7----------------0-5-7--------------------------------------------|
 |-0-5-7----------------0-5-7------------------12\-----------------------------|

 


 


 


 [1/4]  

 
 |-----------------------------------------------------------------------------|
 |-----------------------------------------------------------------------------|
 |----------------------------7-/-9-\-7-9-7------------------------------------|
 |-----------------------------------------------------------------------------|
 |----------------------------5-/-7-\-5-/-7------------------------------------|
 |-0--3--5--3^3--0--5--3--0----------------------------------------------------|

 


 


 [1/4] [1/4] [1/4]  

 
 |-----------------------------------------------------------------------------|
 |-----------------------------------------------------------------------------|
 |-----------------------------------------------------------------------------|
 |-------------------------------------------------------------------5~--------|
 |-------------------------------------------------------------0-5-7-----------|
 |0--3--5--3^3--0--5--3^3-0--5/7--3~---0--3--5--3^3--0---0-5-7-----------------|
 pm-----------

 


 


 [1/4] [1/4] [1/4]  

 
 |-----------------------------------------------------------------------------|
 |-----------------------------------------------------------------------------|
 |----------------------------------------------------------------7-/-9-\-7-/-9|
 |-----------------------------------------------------------------------------|
 |----------------------------------------------------------------5-/-7-\-5-/-7|
 |-0--3--5--3^3--0--5--3^3-0--5/7--3~---0--3--5--3^3--0--5--3--0---------------|

 


 


 


 [1/4] [1/4] [1/4]  

 
 |-----------------------------------------------------------------------------|
 |-----------------------------------------------------------------------------|
 |-----------------------------------------------------------------------------|
 |--------------------------------------------------------------------5~-------|
 |--------------------------------------------------------------0-5-7----------|
 |-0--3--5--3^3--0--5--3^3-0--5/7--3~---0--3--5--3^3--0---0-5-7----------------|
 pm-----------

 


 


 1/4 1/4 trem bar


 

 
 |-----------------------------------------------------------------------------|
 |-----------------------------------------------------------------------------|
 |-----------------------------------------------------------------------------|
 |-------------------------------------2---------------------------------------|
 |-------------------------------------2---------------------------------------|
 |-0--3--5--3^3--0--5--3^3-0--5/7--3~--0---------------------------------------|
 |-----------------------------------------------------------------------------|
 |-----------------------------------------------------------------------------|
 |-----------------------------------------------------------------------------|
 |----------2-2--2-2--2-2--2-2--2-2-2-2---2-2--2-2--2-2--2-2-1-----------------|
 |----------2-2--2-2--2-2--2-2--2-2-2-2---2-2--2-2--2-2--2-0-3-----------------|
 |-5/7--3~--0-0--0-0--0-0--0-0--0-0-0-0---0-0--0-0--0-0--0---------------------|
 |-----------------------------------------------------------------------------|
 |-----------------------------------------------------------------------------|
 |-----------------------------------------------------------------------------|
 |-2-2--2-2--2-2--2-2--2-2-2-2---2-2--2-2--2-2--2-2-1--------------------------|
 |-2-2--2-2--2-2--2-2--2-2-2-2---2-2--2-2--2-2--2-0-3--------------------------|
 |-0-0--0-0--0-0--0-0--0-0-0-0---0-0--0-0--0-0--0------------------------------|
 |-----------------------------------------------------------------------------|
 |-----------------------------------------------------------------------------|
 |-----------------------------------------------------------------------------|
 |-2-2--2-2--2-2--2-2--2-2-2-2---2-2--2-2--2-2--2-2-1--------------------------|
 |-2-2--2-2--2-2--2-2--2-2-2-2---2-2--2-2--2-2--2-0-3--------------------------|
 |-0-0--0-0--0-0--0-0--0-0-0-0---0-0--0-0--0-0--0------------------------------|
 |-----------------------------------------------------------------------------|
 |-----------------------------------------------------------------------------|
 |-----------------------------------------------------------------------------|
 |-2-2--2-2--2-2--2-2--2-2-2-2---2-2--2-2--2-2--2------------------------------|
 |-2-2--2-2--2-2--2-2--2-2-2-2---2-2--2-2--2-2--2------------------------------|
 |-0-0--0-0--0-0--0-0--0-0-0-0---0-0--0-0--0-0--0--7--3------------------------|
 |-----------------------------------------------------------------------------|
 |-----------------------------------------------------------------------------|
 |-----------------------------------------------------------------------------|
 |-3-/-4---4-3---3-3-/-4---4-3---3-3-/-4---4-3-----3---7-\-3-------------------|
 |-1-/-2---2-1---1-1-/-2---2-1---1-1-/-2---2-1-----1---5-\-1-------------------|
 |-----------------------------------------------------------------------------|
 |-----------------------------------------------------------------------------|
 |-----------------------------------------------------------------------------|
 |-----------------------------------------------------------------------------|
 |-3-/-4---4-3---3-3-/-4---4-3---3-3-/-4---4-3---------3-----------------------|
 |-1-/-2---2-1---1-1-/-2---2-1---1-1-/-2---2-1------5--1-----------------------|
 |--------------------------------------------------3--------------------------|
 |-----------------------------------------------------------------------------|
 |-----------------------------------------------------------------------------|
 |-----------------------------------------------------------------------------|
 |-3-/-4---4-3---3-3-/-4---4-3---3-3-/-4---4-3-----3---7-\-3-------------------|
 |-1-/-2---2-1---1-1-/-2---2-1---1-1-/-2---2-1-----1---5-\-1-------------------|
 |-----------------------------------------------------------------------------|
 |-----------------------------------------------------------------------------|
 |-----------------------------------------------------------------------------|
 |-----------------------------------------------------------------------------|
 |-3-/-4---4-3---3-3-/-4---4-3---3-3-/-4---4-3-----7-8-------------------------|
 |-1-/-2---2-1---1-1-/-2---2-1---1-1-/-2---2-1-----5-6-------------------------|
 |-----------------------------------------------------------------------------|


Important: The song above is NOT stored on the Chordie server. The original song is hosted at www.xguitar.com. Chordie works as a search engine and provides on-the-fly formatting. Chordie does not index songs against artists'/composers' will. To remove this song please click here.

This song is displayed as text-only. Transposing and tuning is only available for chordpro-songs.
Rate #1 of 4 versions

Login - add to songbook

SHARE PAGE  




You need to log in to post comments