Guitar Tabs, Chords and Lyrics
Server problems seems to be fixed. Chordie has been experiencing problems with songs disappearing. These issues now seems to be fixed, but still verifying the fix. If you find anything strange, please email admin@chordie.com.


Last Exit  Pearl Jam

Author/Artist: Pearl Jam
Title: Last Exit
Album: Vitalogy
Transcribed by: Evan Cowan
Email: ecowan@uclink4.berkeley.edu
A cool 5/4 song
 
 -|---10-----11------12--------13--------13--14--------x--|--------------------
 -|-8------9------10--------11--------12-------------x----|--------------------
 -|------8------9--------10--------11--------------x------|--------------------
 -|----------------------------------------------x--------|--------------------
 -|-------------------------------------------------------|--------------------
 -|-------------------------------------------------------|--------------------

False Intro, G1 Enter G2
 
 -|--------0--0---0--0-----------------------------|--------------|------------
 -|--2-----------------0---------------------------|--------------|------------
 -|----0-------------------------------------------|--------------|------------
 -|------------------------------------------------|--------------|------------
 -|----------------------------------5-5--5--5\3---|--------------|------------
 -|------------------------------------------------|--------------|------------

random stuff Enter Drums
 
 -|----------------|-----------------------------------------------------|-----
 -|-1------1-------|-1-----------------1-------1-----------------1-------|-----
 -|-0--2---0--2----|-0------2----------0--2----0-------2---------0--2----|-----
 -|-2--0---2--0----|-2------0----------2--0----2-------0---------2--0----|-----
 -|-3--x---3--x----|-3------x----------3--x----3-------x---------3--x----|-----
 -|----2------2p0--|--------2-------------2p0----------2------------2p0--|-----

G1+G2 4x Lives opened and trashed Look ma watch me crash
 
 -|------------------------------------------------|---------------------------
 -|-1---------------1-------1--------------1-------|---------------------------
 -|-0---2-----------0---2---0---2----------0---2---|---------------------------
 -|-2---0-----------2---0---2---0----------2---0---|---------------------------
 -|-3---x-----------3---x---3---x----------3---x---|---------------------------
 -|-----2---------------2p0-----2--------------2p0-|---------------------------

No time to question Why'd nothing last
 
 -|----------------------------------------------------|-----------------------
 -|-1-----------------1-------1----------------1-------|-----------------------
 -|-0-------2---------0---2---0---2------------0---2---|-----------------------
 -|-2-------0---------2---0---2---0------------2---0---|-----------------------
 -|-3-------x---------3---x---3---x------------3---x---|-----------------------
 -|---------2-------------2p0-----2----------------2p0-|-----------------------

Grasp and hold on Hold tight and fast
 
 -|--------------------------------------------------|-------------------------
 -|-1--------------1-------1-----------------1-------|-------------------------
 -|-0-----2--------0---2---0------2----------0---2---|-------------------------
 -|-2-----0--------2---0---2------0----------2---0---|-------------------------
 -|-3-----x--------3---x---3------x----------3---x---|-------------------------
 -|-------2------------2p0--------2--------------2p0-|-------------------------

Soon be all over And I will relent
 
 -|--------1---0------------------1-----0----------------------|---------------
 -|--1-----1---0------------------1-----0----------------------|---------------
 -|--0-----2---x---4-----5-----7--2-----x------4-4-4-4-4-4-4-4-|---------------
 -|--2-0---3---2---4-----5-----7--3-----2------4-4-4-4-4-4-4-4-|---------------
 -|--3-x-----------2-----3-----5---------------2-2-2-2-2-2-2-2-|---------------
 -|----2-------------------------------------------------------|---------------

G1 Let the ocean swell di-solve way my past
 
 -|------------------------------------------------------------|---------------
 -|------------------------------------------------------------|---------------
 -|-------10---9-----------------10-----9----------------------|---------------
 -|----------------9----10----12------------9------------------|---------------
 -|--3---------------------------------------------------------|---------------
 -|----2-------------------------------------------------------|---------------

[G2]  
 
 -|----------------------------------|-----------------------------------------
 -|----------------------------------|-----------------------------------------
 -|-----------------4-----5---7------|-----------------------------------------
 -|--3-----2--------4-----5---7------|-----------------------------------------
 -|--3-----2--------2-----3---5------|-----------------------------------------
 -|--1-----0-------------------------|-----------------------------------------

G1 Three days and maybe longer
 
 -|----------------------------------|-----------------------------------------
 -|----------------------------------|-----------------------------------------
 -|-10-----9-------------------------|-----------------------------------------
 -|-----------------9----10--12\-----|-----------------------------------------
 -|----------------------------------|-----------------------------------------
 -|----------------------------------|-----------------------------------------

[G2]  
 
 -|------------------------------------|-------------------|-------------------
 -|-----1----------------------1-------|-1--------1--------|-------------------
 -|-----0-----------2----------0--2----|-0---2----0---2----|-------------------
 -|-----2-----------0----------2--0----|-2---0----2---0----|-------------------
 -|-----3-----------x----------3--x----|-3---x----3---x----|-------------------
 -|-----------------2-------------2p0--|-----2--------2p0--|-------------------

G1+G2 Won't even know I've left 3x
 
 -|----------------------------------------------------|-----------------------
 -|-1------------1-----------1--------------1----------|-----------------------
 -|-0--2---------0----2------0-----2--------0----2-----|-----------------------
 -|-2--0---------2----0------2-----0--------2----0-----|-----------------------
 -|-3--x---------3----x------3-----x--------3----x-----|-----------------------
 -|----2--------------2p0----------2-------------2p0---|-----------------------

Under your tounge I'm like a tab
 
 -|----------------------------------------------------------------|-----------
 -|-1------------------1---------1----------------------1----------|-----------
 -|-0---2--------------0----2----0--------2-------------0----2-----|-----------
 -|-2---0--------------2----0----2--------0-------------2----0-----|-----------
 -|-3---x--------------3----x----3--------x-------------3----x-----|-----------
 -|-----2-------------------2p0-----------2------------------2p0---|-----------

I will give you what You're not s'posed to have
 
 -|----------------------------------------------------|-----------------------
 -|-1------------1-----------1--------------1----------|-----------------------
 -|-0--2---------0----2------0---2----------0----2-----|-----------------------
 -|-2--0---------2----0------2---0----------2----0-----|-----------------------
 -|-3--x---------3----x------3---x----------3----x-----|-----------------------
 -|----2--------------2p0--------2---------------2p0---|-----------------------

Under my breath I swear by sin
 
 -|-------------------------------------------------------|--------------------
 -|-1--------------1----------1----------------1----------|--------------------
 -|-0----2---------0---2------0-----2----------0----2-----|--------------------
 -|-2----0---------2---0------2-----0----------2----0-----|--------------------
 -|-3----x---------3---x------3-----x----------3----x-----|--------------------
 -|------2-------------2p0----------2---------------2p0---|--------------------

For better or for worse A best we began______
 
 -|--------1---0-----------------1----0----------------------|-----------------
 -|-1------1---0-----------------1----0----------------------|-----------------
 -|-0------2---x---4---5-----7---2----x------4-4-4-4-4-4-4-4-|-----------------
 -|-2--0---3---2---4---5-----7---3----2------4-4-4-4-4-4-4-4-|-----------------
 -|-3--x-----------2---3-----5---------------2-2-2-2-2-2-2-2-|-----------------
 -|----2-----------------------------------------------------|-----------------

G1 Let the sun climb oh burn way my mask
 
 -|----------------------------------------------------------|-----------------
 -|----------------------------------------------------------|-----------------
 -|-------10---9----------------10----9----------------------|-----------------
 -|----------------9--10----12---------------9---------------|-----------------
 -|-3--------------------------------------------------------|-----------------
 -|----2-----------------------------------------------------|-----------------

[G2]  
 
 -|----------------------------------|-----------------------------------------
 -|----------------------------------|-----------------------------------------
 -|-----------------4-----5---7------|-----------------------------------------
 -|--3-----2--------4-----5---7------|-----------------------------------------
 -|--3-----2--------2-----3---5------|-----------------------------------------
 -|--1-----0-------------------------|-----------------------------------------

G1 Three days and maybe lon-ger
 
 -|----------------------------------|-----------------------------------------
 -|----------------------------------|-----------------------------------------
 -|-10-----9-------------------------|-----------------------------------------
 -|-----------------9----10--12------|-----------------------------------------
 -|----------------------------------|-----------------------------------------
 -|----------------------------------|-----------------------------------------

[G2]  
 
 -|--------------------------------------------------------------|-------------
 -|--------------------------------------------------------------|-------------
 -|---9b11-9b10-9b10-9b11r9--9-\-7--7-4\2--2--2b4r2--14--b16r14--|-------------
 -|--------------------------------------------------------------|-------------
 -|--------------------------------------------------------------|-------------
 -|--------------------------------------------------------------|-------------

Shed my skin at last shed shed
 
 -|--------------------------------|-------------------------------------------
 -|-12--10--8--7--12--10--8--7--8--|-------------------------------------------
 -|-11---9--7--7--11---9--7--7--7--|-------------------------------------------
 -|--/---/--/--/---/---/--/--/--/--|-------------------------------------------
 -|--/---/--/--/---/---/--/--/--/--|-------------------------------------------
 -|--------------------------------|-------------------------------------------

G1 (tremolo pick)
 
 -|--------------------------------|-------------------------------------------
 -|--------------------------------|-------------------------------------------
 -|--------------------------------|-------------------------------------------
 -|--------------------------------|-------------------------------------------
 -|--------------------------------|-------------------------------------------
 -|--------------------------------|-------------------------------------------

G2-continue improv backwards guitar
 
 -|---------1---0---------------1----0----------------------|------------------
 -|--8------1---0---------------1----0----------------------|------------------
 -|--7------2---x---4---5----7--2----x------4-4-4-4-4-4-4-4-|------------------
 -|--/------3---2---4---5----7--3----2------4-4-4-4-4-4-4-4-|------------------
 -|--/--------------2---3----5--------------2-2-2-2-2-2-2-2-|------------------
 -|---------------------------------------------------------|------------------

G1 Let the sun shine burn way my mask
 
 -|---------------------------------------------------------|------------------
 -|---------------------------------------------------------|------------------
 -|--------10---9--------------10----9----------------------|------------------
 -|-----------------9--10---12--------------9---------------|------------------
 -|--3------------------------------------------------------|------------------
 -|-----2---------------------------------------------------|------------------

[G2]  
 
 -|---------------------------------|----------------------------------------|-
 -|---------------------------------|-1------------------1------1-----1------|-
 -|-----------------4-----5---7-----|-0-----------2------0--2---0--2--0--2---|-
 -|--3-----2--------4-----5---7-----|-2-----------0------2--0---2--0--2--0---|-
 -|--3-----2--------2-----3---5-----|-3-----------x------3--x---3--x--3--x---|-
 -|--1-----0------------------------|-------------2---------2p0----2-----2p0-|-

G1 Three days and maybe lon-ger Won't ever find me here
 
 -|---------------------------------|----------------------------------------|-
 -|---------------------------------|-1------------------1------1-----1------|-
 -|-10-----9------------------------|-0-----------2------0--2---0--3--0--2---|-
 -|-----------------9----10--12-----|-2-----------0------2--0---2--0--2--0---|-
 -|---------------------------------|-3-----------x------3--x---3--x--3--x---|-
 -|---------------------------------|-------------2---------2p0----2-----2p0-|-

[G2]  
 
 -|--1---0-------------1-----0----------------------|--------------------------
 -|--1---0-------------1-----0----------------------|--------------------------
 -|--2---x---4--5--7---2-----x------4-4-4-4-4-4-4-4-|--------------------------
 -|--3---2---4--5--7---3-----2------4-4-4-4-4-4-4-4-|--------------------------
 -|----------2--3--5----------------2-2-2-2-2-2-2-2-|--------------------------
 -|-------------------------------------------------|--------------------------

G1 Let the o-cean dissolve way my past
 
 -|-------------------------------------------------|--------------------------
 -|-------------------------------------------------|--------------------------
 -|-10---9------------10-----9----------------------|--------------------------
 -|----------9-10-12----------------9---------------|--------------------------
 -|-------------------------------------------------|--------------------------
 -|-------------------------------------------------|--------------------------

[G2]  
 
 -|--------------------------------------|-------------------------------------
 -|--------------------------------------|-------------------------------------
 -|----------------4--------5---7--------|-------------------------------------
 -|--3----2--------4--------5---7--------|-------------------------------------
 -|--3----2--------2--------3---5--------|-------------------------------------
 -|--1----0------------------------------|-------------------------------------

G1 Four days and not much lon-ger
 
 -|--------------------------------------|-------------------------------------
 -|--------------------------------------|-------------------------------------
 -|-10----9------------------------------|-------------------------------------
 -|----------------9-------10--12--------|-------------------------------------
 -|--------------------------------------|-------------------------------------
 -|--------------------------------------|-------------------------------------

[G2]  
 
 -|------------------------------------------------------|---------------------
 -|------------------------------------------------------|---------------------
 -|--2-2-2-2-2-2-2-0-1-------1---------1-----1-1-1-1-1-1-|---------------------
 -|--0-0-0-0-0-0-0-0-0-0-0-0-0-0-0-0-0-0-0-0-0-0-0-0-0-0-|---------------------
 -|------------------------------------------------------|---------------------
 -|------------------------------------------------------|---------------------
 G1 palm mute------------------------------|
 -|------------------------------------------------------|---------------------
 -|------------------------------------------------------|---------------------
 -|------------------------------------------------------|---------------------
 -|------------------------------------------------------|---------------------
 -|------------------------------------------------------|---------------------
 -|------------------------------------------------------|---------------------

G2-random improv backwards stuff
 
 -|------------------------------------------------|---------------------------
 -|------------------------------------------------|---------------------------
 -|-1---------1--2-1-------1-1-1-1-1-1-1-1-1-1-1-1-|---------------------------
 -|-0-x-x-x-x-0--0-0-x-x-x-0-0-0-0-0-0-0-0-0-0-0-0-|---------------------------
 -|------------------------------------------------|---------------------------
 -|------------------------------------------------|---------------------------
 p.m.-------------------| Let my spirit
 -|--------------------------------------------------------------|-------------
 -|-----1------1------1------1------1------1------1------1-------|-------------
 -|-----0--2---0--2---0--2---0--2---0--2---0--2---0--2---0--2----|-------------
 -|-----2--0---2--0---2--0---2--0---2--0---2--0---2--0---2--0----|-------------
 -|-----3--x---3--x---3--x---3--x---3--x---3--x---3--x---3--x----|-------------
 -|--------2------2p0----2------2p0----2------2p0----2------2p0--|-------------

G1+G2 Pass_________________________________ Oooh
 
 -|------------------------------------------------|---------------------------
 -|-1--------------1-------1--------------1--------|---------------------------
 -|-0-------2------0---2---0-------2------0---2----|---------------------------
 -|-2-------0------2---0---2-------0------2---0----|---------------------------
 -|-3-------x------3p0-x---3-------x------3p0-x----|---------------------------
 -|---------2----------2p0---------2----------2p0--|---------------------------

This is this is This is this is
 
 -|--------------------------------------------------||------------------------
 -|-1--------------1-------1----------------1--------||------------------------
 -|-0-------2------0---2---0-------2--------0---2----||------------------------
 -|-2-------0------2---0---2-------0--------2---0----||------------------------
 -|-3-------x------3p0-x---3-------x--------3p0-x----||------------------------
 -|---------2----------2p0---------2------------2p0--||------------------------

This is this is My last exit End

Important: The song above is NOT stored on the Chordie server. The original song is hosted at www.xguitar.com. Chordie works as a search engine and provides on-the-fly formatting. Chordie does not index songs against artists'/composers' will. To remove this song please click here.

Text color:
Chord color:
Chord grids: 
Font size:    
Page size: 

G2
Rate #2 of 2 versions

Jango Player

Login - add to songbook

SHARE PAGE  



You need to log in to post comments