Guitar Tabs, Chords and Lyrics
Server problems seems to be fixed. Chordie has been experiencing problems with songs disappearing. These issues now seems to be fixed, but still verifying the fix. If you find anything strange, please email admin@chordie.com.


Spin the Black Circle  Pearl Jam

Author/Artist: Pearl Jam
Title: Spin The Black Circle
Album: Vitalogy
Transcribed by: Evan Cowan
Email: ecowan@uclink4.berkeley.edu
 
 -|-----------------------------------------------------------------------|----
 -|-----------------------------------------------------------------------|----
 -|-------4--4-4-4-4-4-4-4-4-4-4-4-------4--4-4-4-4-4-4-4-4-4-4-4-4-4-4-4-|----
 -|-------4--4-4-4-4-4-4-4-4-4-4-4-------4--4-4-4-4-4-4-4-4-4-4-4-4-4-4-4-|----
 -|-0---0-2--2-2-2-2-2-2-2-2-2-2-2-0---0-2--2-2-2-2-2-2-2-2-2-2-2-2-2-2-2-|----
 -|---3------------------------------3------------------------------------|----

Intro, G1
 
 -|-----------------------------------------------------------------------|----
 -|-----------------------------------------------------------------------|----
 -|--------------------------------------4--4-4-4-4-4-4-4-4-4-4-4-4-9-9-9-|----
 -|--------------------------------------4--4-4-4-4-4-4-4-4-4-4-4-4-9-9-9-|----
 -|--------------------------------0---0-2--2-2-2-2-2-2-2-2-2-2-2-2-7-7-7-|----
 -|----------------------------------3------------------------------------|----

Intro, G2
 
 -|-------------------------------------------------------------------|--------
 -|-------------------------------------------------------------------|--------
 -|-10\9--8--7--5--------------------10\9--8--7--5--------------------|--------
 -|-10\9--8--7--5--------------------10\9--8--7--5--------------------|--------
 -|--8\7--6--5--3---------------------8\7--6--5--3--------------------|--------
 -|-------------------------------------------------------------------|--------

[G1]  
 
 -|---------------------8-8------8-8---------------------8-8----------|--------
 -|----------------8----8-8-8----8-8----------------8----8-8--8-------|--------
 -|---------------10b12----10b12-------------------10b12-----10b12r10-|--------
 -|-------------------------------------------------------------------|--------
 -|-------------------------------------------------------------------|--------
 -|-------------------------------------------------------------------|--------

[G2]  
 
 -|-----------------------------------|-----------------------------------|----
 -|-----------------------------------|-----------------------------------|----
 -|-10\9--8--7--5---------------------|-10\9--8--7--5---------------------|----
 -|-10\9--8--7--5---------------------|-10\9--8--7--5---------------------|----
 -|--8\7--6--5--3---------------------|--8\7--6--5--3---------------------|----
 -|-----------------------------------|-----------------------------------|----

G1 3x
 
 -|---------------------8-8-------8-8-|----------------8----8-8--8----8-8-|----
 -|----------------8----8-8--8----8-8-|---------------11b13-----11b13-----|----
 -|---------------10b12-----10b12-----|-----------------------------------|----
 -|-----------------------------------|-----------------------------------|----
 -|-----------------------------------|-----------------------------------|----
 -|-----------------------------------|-----------------------------------|----

G2 3x
 
 -|---------------------------------------------------------------------|------
 -|---------------------------------------------------------------------|------
 -|-10\9--8--7--5---------------------10\9--8--7--5---------------------|------
 -|-10\9--8--7--5---------------------10\9--8--7--5---------------------|------
 -|--8\7--6--5--3----------------------8\7--6--5--3---------------------|------
 -|---------------------------------------------------------------------|------

[G1]  
 
 -|---------------------8-8-------8-8--------------------8-8-------8-8--|------
 -|----------------8----8-8--8----8-8---------------8----8-8--8----8-8--|------
 -|---------------10b12-----10b12------------------10b12-----10b12------|------
 -|---------------------------------------------------------------------|------
 -|---------------------------------------------------------------------|------
 -|---------------------------------------------------------------------|------

[G2]  
 
 -|------------------------------------------------------------|---------------
 -|------------------------------------------------------------|---------------
 -|-------4----------------------------------------------------|---------------
 -|-------4--4-4-4-4-4-4-4-4-4-4-4-4-4-4-4-4-4-4-4-4-4-4-------|---------------
 -|-0---0-2--2-2-2-2-2-2-2-2-2-2-2-2-2-2-2-2-2-2-2-2-2-2-0---0-|---------------
 -|---3----------------------------------------------------3---|---------------

G1 See this needle a see my hand
 
 -|--------------------------------------------------------------|-------------
 -|--------------------------------------------------------------|-------------
 -|-4------------------------------------------------------2-2-2-|-------------
 -|-4--4-4-4-4-4-4-4-4-4-4-4-4-4-4-4-4-4-4-4-4-4-4-4-4-4-4-2-2-2-|-------------
 -|-2--2-2-2-2-2-2-2-2-2-2-2-2-2-2-2-2-2-2-2-2-2-2-2-2-2-2-0-0-0-|-------------
 -|--------------------------------------------------------------|-------------

G1 Drop drop dropping it down oh so gently
 
 -|--0-----------------------------------------------------------|-------------
 -|--3-----------------------------0-----------------------------|-------------
 -|--4--------------------------x/-------------------------------|-------------
 -|--4--------------------------x/-------------------------------|-------------
 -|--2--------------------------x/-------------------------------|-------------
 -|----------------------------------------------/12\------7-5-7-|-------------

G2 (reverse strum)
 
 -|------------------------------------------------------------------|---------
 -|------------------------------------------------------------------|---------
 -|----7--7-7--7-7-7-7-7-7-7-7-7-7-7-7-7-7-7-7-7-7-7-7-7-7-7-7-------|---------
 -|----7--7-7--7-7-7-7-7-7-7-7-7-7-7-7-7-7-7-7-7-7-7-7-7-7-7-7-------|---------
 -|----5--5-5--5-5-5-5-5-5-5-5-5-5-5-5-5-5-5-5-5-5-5-5-5-5-5-5-------|---------
 -|------------------------------------------------------------7-5-7-|---------

G1+G2 Well here it comes I touch the plane
 
 -|-----------------------------------------------------------------|----------
 -|-----------------------------------------------------------------|----------
 -|-7--7-7--7-7-7-7-7-7-7-7-7-7-7-7-7-7-7-7-7-7-7-7-7-7-7-7-7-7-7-7-|----------
 -|-7--7-7--7-7-7-7-7-7-7-7-7-7-7-7-7-7-7-7-7-7-7-7-7-7-7-7-7-7-7-7-|----------
 -|-5--5-5--5-5-5-5-5-5-5-5-5-5-5-5-5-5-5-5-5-5-5-5-5-5-5-5-5-5-5-5-|----------
 -|-----------------------------------------------------------------|----------

Turn me up Won't turn you away
 
 -|-----------------------------------------------------------------------|----
 -|-----------------------------------------------------------------------|----
 -|-10\9--8--7--5---------------------10\9--8--7--5-----------------------|----
 -|-10\9--8--7--5---------------------10\9--8--7--5-----------------------|----
 -|--8\7--6--5--3----------------------8\7--6--5--3-----------------------|----
 -|-----------------------------------------------------------------------|----

G1 Spin Spin Spin the black circle
 
 -|---------------------8-8-------8-8-------------------------------------|----
 -|----------------8----8-8--8----8-8-------------------------------------|----
 -|---------------10b12-----10b12-----------------------------------------|----
 -|-----------------------------------------------------------------------|----
 -|-----------------------------------------------------------------------|----
 -|-----------------------------------------------------------------------|----

[G2]  
 
 -|--------------------------------------------------------------------------|-
 -|--------------------------------------------------------------------------|-
 -|-10\9--8--7--5---------------------10\9-8-7-5-----------------------------|-
 -|-10\9--8--7--5---------------------10\9-8-7-5-----------------------------|-
 -|--8\7--6--5--3----------------------8\7-6-5-3-----------------------------|-
 -|--------------------------------------------------------------------------|-

G1 Spin Spin Spin the black spin the black
 
 -|---------------------8-8-------8-8----------------------------------------|-
 -|----------------8----8-8--8----8-8----------------------------------------|-
 -|---------------10b12-----10b12--------------------------------------------|-
 -|--------------------------------------------------------------------------|-
 -|--------------------------------------------------------------------------|-
 -|--------------------------------------------------------------------------|-

[G2]  
 
 -|-----------------------------------------------------------------------|----
 -|-----------------------------------------------------------------------|----
 -|-10\9--8--7--5---------------------10\9--8--7--5-----------------------|----
 -|-10\9--8--7--5---------------------10\9--8--7--5-----------------------|----
 -|--8\7--6--5--3----------------------8\7--6--5--3-----------------------|----
 -|-----------------------------------------------------------------------|----

G1 Spin Spin Spin the black circle
 
 -|---------------------8-8-------8-8-------------------------------------|----
 -|----------------8----8-8--8----8-8-------------------------------------|----
 -|---------------10b12-----10b12-----------------------------------------|----
 -|-----------------------------------------------------------------------|----
 -|-----------------------------------------------------------------------|----
 -|-----------------------------------------------------------------------|----

[G2]  
 
 -|-----------------------------------------------------------------------|----
 -|-----------------------------------------------------------------------|----
 -|-10\9--8--7--5---------------------10\9--8--7--5-----5-5------5-5-5----|----
 -|-10\9--8--7--5---------------------10\9--8--7--5-----5-5------5-5-5----|----
 -|--8\7--6--5--3----------------------8\7--6--5--3-----3-3------3-3-3----|----
 -|-----------------------------------------------------------------------|----

G1 Spin Spin Wohhhh
 
 -|---------------------8-8-------8-8-------------------------------------|----
 -|----------------8----8-8--8----8-8-------------------------------------|----
 -|---------------10b12-----10b12-----------------------------------------|----
 -|-----------------------------------------------------------------------|----
 -|-----------------------------------------------------------------------|----
 -|-----------------------------------------------------------------------|----

[G2]  
 
 -|--------------------------------------------------------------|-------------
 -|--------------------------------------------------------------|-------------
 -|-4------------------------------------------------------------|-------------
 -|-4--4-4-4-4-4-4-4-4-4-4-4-4-4-4-4-4-4-4-4-4-4-4-4-4-4-4-------|-------------
 -|-2--2-2-2-2-2-2-2-2-2-2-2-2-2-2-2-2-2-2-2-2-2-2-2-2-2-2-0---0-|-------------
 -|----------------------------------------------------------3---|-------------

G1 Pull it out A paper sleeve
 
 -|----------------------------------------------------------------|-----------
 -|----------------------------------------------------------------|-----------
 -|-4--------------------------------------------------------2-2-2-|-----------
 -|-4--4-4-4-4-4-4-4-4-4-4-4-4-4-4-4-4-4-4-4-4-4-4-4-4-4-4-4-2-2-2-|-----------
 -|-2--2-2-2-2-2-2-2-2-2-2-2-2-2-2-2-2-2-2-2-2-2-2-2-2-2-2-2-0-0-0-|-----------
 -|----------------------------------------------------------------|-----------

G1 Oh my joy Only you deserve conceit
 
 -|----------------------------------------------------------------|-----------
 -|----------------------------------------------------------------|-----------
 -|----------------------------------------------------------------|-----------
 -|--------------9b---10---------------------------x\--------7-7-7-|-----------
 -|------------------------------------------------x\--------7-7-7-|-----------
 -|------------------------------------------------x\--------5-5-5-|-----------

G2 grad.bend
 
 -|----------------------------------------------------------------|-----------
 -|----------------------------------------------------------------|-----------
 -|--7--7-7--7-7-7-7-7-7-7-7-7-7-7-7-7-7-7-7-7-7-7-7-7-7-7-7-------|-----------
 -|--7--7-7--7-7-7-7-7-7-7-7-7-7-7-7-7-7-7-7-7-7-7-7-7-7-7-7-------|-----------
 -|--5--5-5--5-5-5-5-5-5-5-5-5-5-5-5-5-5-5-5-5-5-5-5-5-5-5-5-------|-----------
 -|----------------------------------------------------------7-5-7-|-----------

G1+G2 Oh so big A my whole world
 
 -|-----------------------------------------------------------------|----------
 -|-----------------------------------------------------------------|----------
 -|-7--7-7--7-7-7-7-7-7-7-7-7-7-7-7-7-7-7-7-7-7-7-7-7-7-7-7-7-7-7-7-|----------
 -|-7--7-7--7-7-7-7-7-7-7-7-7-7-7-7-7-7-7-7-7-7-7-7-7-7-7-7-7-7-7-7-|----------
 -|-5--5-5--5-5-5-5-5-5-5-5-5-5-5-5-5-5-5-5-5-5-5-5-5-5-5-5-5-5-5-5-|----------
 -|-----------------------------------------------------------------|----------

I'd rather you... Rather you... Than her
 
 -|----------------------------------------------------------------------|-----
 -|----------------------------------------------------------------------|-----
 -|-10\9--8--7--5---------------------10\9--8--7--5----------------------|-----
 -|-10\9--8--7--5---------------------10\9--8--7--5----------------------|-----
 -|--8\7--6--5--3----------------------8\7--6--5--3----------------------|-----
 -|----------------------------------------------------------------------|-----

G1 Spin Spin Spin the black circle
 
 -|---------------------8-8-------8-8------------------------------------|-----
 -|----------------8----8-8--8----8-8------------------------------------|-----
 -|---------------10b12-----10b12----------------------------------------|-----
 -|----------------------------------------------------------------------|-----
 -|----------------------------------------------------------------------|-----
 -|----------------------------------------------------------------------|-----

[G2]  
 
 -|--------------------------------------------------------------------------|-
 -|--------------------------------------------------------------------------|-
 -|-10\9--8--7--5---------------------10\9-8-7-5-----------------------------|-
 -|-10\9--8--7--5---------------------10\9-8-7-5-----------------------------|-
 -|--8\7--6--5--3----------------------8\7-6-5-3-----------------------------|-
 -|--------------------------------------------------------------------------|-

G1 Spin Spin Spin the black spin the black
 
 -|---------------------8-8-------8-8----------------------------------------|-
 -|----------------8----8-8--8----8-8----------------------------------------|-
 -|---------------10b12-----10b12--------------------------------------------|-
 -|--------------------------------------------------------------------------|-
 -|--------------------------------------------------------------------------|-
 -|--------------------------------------------------------------------------|-

[G2]  
 
 -|----------------------------------------------------------------------|-----
 -|----------------------------------------------------------------------|-----
 -|-10\9--8--7--5---------------------10\9--8--7--5----------------------|-----
 -|-10\9--8--7--5---------------------10\9--8--7--5----------------------|-----
 -|--8\7--6--5--3----------------------8\7--6--5--3----------------------|-----
 -|----------------------------------------------------------------------|-----

G1 Spin Spin Spin the black circle
 
 -|---------------------8-8-------8-8------------------------------------|-----
 -|----------------8----8-8--8----8-8------------------------------------|-----
 -|---------------10b12-----10b12----------------------------------------|-----
 -|----------------------------------------------------------------------|-----
 -|----------------------------------------------------------------------|-----
 -|----------------------------------------------------------------------|-----

[G2]  
 
 -|-------------------------------------------------------------|--------------
 -|-------------------------------------------------------------|--------------
 -|-10\9--8--7--5---------------------10\9--8--7--5-------------|--------------
 -|-10\9--8--7--5---------------------10\9--8--7--5-------------|--------------
 -|--8\7--6--5--3----------------------8\7--6--5--3-------------|--------------
 -|-------------------------------------------------------------|--------------

G1 Spin Spin Wohhh______
 
 -|---------------------8-8-------8-8---------------------------|--------------
 -|----------------8----8-8--8----8-8---------------------------|--------------
 -|---------------10b12-----10b12-------------------------------|--------------
 -|-------------------------------------------------------------|--------------
 -|-------------------------------------------------------------|--------------
 -|-------------------------------------------------------------|--------------

[G2]  
 
 -|-------------------------------------------------------------------------|--
 -|-------------------------------------------------------------------------|--
 -|-------------------------------------------------------------------------|--
 -|-------------------------------------------------------------------------|--
 -|-10-10-10-11-11-11-10-10-9-9-9-10-10-10-9-9-8-8-8-9-9-9-8-8-7-7-7-7-7-10-|--
 -|--8--8--8--9--9--9--8--8-7-7-7--8--8--8-7-7-6-6-6-7-7-7-6-6-5-5-5-5-5--8-|--

G1 Oh____________________________________________________________
 
 -|-------------------------------------------------------------------------|--
 -|-------------------------------------------------------------------------|--
 -|-------------------------------------------------------------------------|--
 -|-10-10-10-11-11-11-10-10-9-9-9-10-10-10-9-9-8-8-8-9-9-9-8-8-7-7-7-7-7-10-|--
 -|-10-10-10-11-11-11-10-10-9-9-9-10-10-10-9-9-8-8-8-9-9-9-8-8-7-7-7-7-7-10-|--
 -|-------------------------------------------------------------------------|--

[G2]  
 
 -|--------------------------------------------------------------------------|-
 -|--------------------------------------------------------------------------|-
 -|--------------------------------------------------------------------------|-
 -|--------------------------------------------------------------------------|-
 -|-10-10-10-10-10-11-11-11-10-10-9-9-9-10-10-10-9-9-8-8-8-9-9-9-8-8-7-7-7-7-|-
 -|--8--8--8--8--8--9--9--9--8--8-7-7-7--8--8--8-7-7-6-6-6-7-7-7-6-6-5-5-5-5-|-

[G1]  
 
 -|--------------------------------------------------------------------------|-
 -|--------------------------------------------------------------------------|-
 -|--------------------------------------------------------------------------|-
 -|-10-10-10-10-10-11-11-11-10-10-9-9-9-10-10-10-9-9-8-8-8-9-9-9-8-8-7-7-7-7-|-
 -|-10-10-10-10-10-11-11-11-10-10-9-9-9-10-10-10-9-9-8-8-8-9-9-9-8-8-7-7-7-7-|-
 -|--------------------------------------------------------------------------|-

[G2]  
 
 -|--------|----------------------------------------------------------------|--
 -|--------|----------------------------------------------------------------|--
 -|--------|-4--4-4-4-4-4-4-4-4-4-4-4-4-4-4-4-4-4-4-4-4-4-4-4-4-4-4-4-------|--
 -|--------|-4--4-4-4-4-4-4-4-4-4-4-4-4-4-4-4-4-4-4-4-4-4-4-4-4-4-4-4-------|--
 -|--0---0-|-2--2-2-2-2-2-2-2-2-2-2-2-2-2-2-2-2-2-2-2-2-2-2-2-2-2-2-2-2-0-0-|--
 -|----3---|----------------------------------------------------------------|--

G1 Oh
 
 -|------------------------------------------------------------------|---------
 -|------------------------------------------------------------------|---------
 -|-7--7-7-7-7-7-7-7-7-7-7-7-7-7-7-7-7-7-7-7-7-7-7-7-7-7-7-7-7-7-7-7-|---------
 -|-7--7-7-7-7-7-7-7-7-7-7-7-7-7-7-7-7-7-7-7-7-7-7-7-7-7-7-7-7-7-7-7-|---------
 -|-5--5-5-5-5-5-5-5-5-5-5-5-5-5-5-5-5-5-5-5-5-5-5-5-5-5-5-5-5-5-5-5-|---------
 -|------------------------------------------------------------------|---------

G1 You're so warm______________________
 
 -|------------------------------------------------------------------|---------
 -|------------------------------------------------------------------|---------
 -|-9--9-9-9-9-9-9-9-9-9-9-9-9-9-9-9-9-9-9-9-9-9-9-9-9-9-9-9-9-9-9-9-|---------
 -|-9--9-9-9-9-9-9-9-9-9-9-9-9-9-9-9-9-9-9-9-9-9-9-9-9-9-9-9-9-9-9-9-|---------
 -|-7--7-7-7-7-7-7-7-7-7-7-7-7-7-7-7-7-7-7-7-7-7-7-7-7-7-7-7-7-7-7-7-|---------
 -|------------------------------------------------------------------|---------

G1 Ohh the ritual___________ When I
 
 -|------------------------------------------------------------------|---------
 -|------------------------------------------------------------------|---------
 -|--9-9-9-9-9-9-9-9-9-9-9-9-9-9-9-9-9-9-9-9-9-9-9-9-9-9-9-9-9-9-9-9-|---------
 -|--9-9-9-9-9-9-9-9-9-9-9-9-9-9-9-9-9-9-9-9-9-9-9-9-9-9-9-9-9-9-9-9-|---------
 -|--7-7-7-7-7-7-7-7-7-7-7-7-7-7-7-7-7-7-7-7-7-7-7-7-7-7-7-7-7-7-7-7-|---------
 -|------------------------------------------------------------------|---------

G1 Lay down your crooked arm__________
 
 -|------------------------------------------------------------------|---------
 -|------------------------------------------------------------------|---------
 -|------------------------------------------------------------------|---------
 -|------------------------------------------------------------------|---------
 -|-10---/--11-\-10-\9---/--10--\-9-\8---/---9-\-8-------------------|---------
 -|--/-------/----/--/-------/----/--/-------/---/-----12\-----------|---------

G2 (trem pick all notes) trem pick while sliding
 
 -|----------------------------------------------------------------------|-----
 -|----------------------------------------------------------------------|-----
 -|-10\9--8--7--5---------------------10\9--8--7--5----------------------|-----
 -|-10\9--8--7--5---------------------10\9--8--7--5----------------------|-----
 -|--8\7--6--5--3----------------------8\7--6--5--3----------------------|-----
 -|----------------------------------------------------------------------|-----

G1 Spin Spin Spin the black circle
 
 -|---------------------8-8-------8-8------------------------------------|-----
 -|----------------8----8-8--8----8-8------------------------------------|-----
 -|---------------10b12-----10b12----------------------------------------|-----
 -|----------------------------------------------------------------------|-----
 -|----------------------------------------------------------------------|-----
 -|----------------------------------------------------------------------|-----

[G2]  
 
 -|--------------------------------------------------------------------------|-
 -|--------------------------------------------------------------------------|-
 -|-10\9--8--7--5---------------------10\9-8-7-5-----------------------------|-
 -|-10\9--8--7--5---------------------10\9-8-7-5-----------------------------|-
 -|--8\7--6--5--3----------------------8\7-6-5-3-----------------------------|-
 -|--------------------------------------------------------------------------|-

G1 Spin Spin Spin the black spin the black
 
 -|---------------------8-8-------8-8----------------------------------------|-
 -|----------------8----8-8--8----8-8----------------------------------------|-
 -|---------------10b12-----10b12--------------------------------------------|-
 -|--------------------------------------------------------------------------|-
 -|--------------------------------------------------------------------------|-
 -|--------------------------------------------------------------------------|-

[G2]  
 
 -|-----------------------------------------------------------------|----------
 -|-----------------------------------------------------------------|----------
 -|-10\9--8--7--5----------------10\9--8--7--5----------------------|----------
 -|-10\9--8--7--5----------------10\9--8--7--5----------------------|----------
 -|--8\7--6--5--3-----------------8\7--6--5--3----------------------|----------
 -|-----------------------------------------------------------------|----------

G1 Spin Spin Spin the black circle
 
 -|----------------11p8-11p8-11p8-----------------------------------|----------
 -|-----------------------------------------------------------------|----------
 -|-----------------------------------------------------------------|----------
 -|-----------------------------------------------------------------|----------
 -|-----------------------------------------------------------------|----------
 -|-----------------------------------------------------------------|----------

[G2]  
 
 -|--------------------------------------------------------------------------|-
 -|--------------------------------------------------------------------------|-
 -|-10\9--8--7--5---------------------10\9-8-7-5-----------------------------|-
 -|-10\9--8--7--5---------------------10\9-8-7-5-----------------------------|-
 -|--8\7--6--5--3----------------------8\7-6-5-3-----------------------------|-
 -|--------------------------------------------------------------------------|-

G1 Spin Spin Spin the black spin the black
 
 -|---------------------8-8-------8-8----------------------------------------|-
 -|----------------8----8-8--8----8-8----------------------------------------|-
 -|---------------10b12-----10b12--------------------------------------------|-
 -|--------------------------------------------------------------------------|-
 -|--------------------------------------------------------------------------|-
 -|--------------------------------------------------------------------------|-

[G2]  
 
 -|-------------------------------------------------------|--------------------
 -|-------------------------------------------------------|--------------------
 -|--10\9--8--7--5----------------------------------------|--------------------
 -|--10\9--8--7--5----------------------------------------|--------------------
 -|---8\7--6--5--3----------------------------------------|--------------------
 -|-------------------------------------------------------|--------------------

G1 Spin the black spin the black spin the black circle
 
 -|-------------------------------------------------------|--------------------
 -|---11p8h11p8h11p8h11p8h11p8h11p8h11p8h11p8h11p8h11p8---|--------------------
 -|-------------------------------------------------------|--------------------
 -|-------------------------------------------------------|--------------------
 -|-------------------------------------------------------|--------------------
 -|-------------------------------------------------------|--------------------

[G2]  
 
 -|----------------------------------------------------------------------|-----
 -|----------------------------------------------------------------------|-----
 -|-10\9--8--7--5---------------------10\9--8--7--5----------------------|-----
 -|-10\9--8--7--5---------------------10\9--8--7--5----------------------|-----
 -|--8\7--6--5--3----------------------8\7--6--5--3----------------------|-----
 -|----------------------------------------------------------------------|-----

G1 Spin the black circle Spin the black circle
 
 -|-------------------------------------8------------8--------------8----|-----
 -|-11p8h11p8h11p8h11p8h11p8h11p8h11p8-11b13--------11b13----------11b13-|-----
 -|----------------------------------------------------------------------|-----
 -|----------------------------------------------------------------------|-----
 -|----------------------------------------------------------------------|-----
 -|----------------------------------------------------------------------|-----

[G2]  
 
 -|-------------------------------------------------------------------------|--
 -|-------------------------------------------------------------------------|--
 -|-10\9--8--7--5---------------------10\9--8--7--5-------------------------|--
 -|-10\9--8--7--5---------------------10\9--8--7--5-------------------------|--
 -|--8\7--6--5--3----------------------8\7--6--5--3-------------------------|--
 -|-------------------------------------------------------------------------|--

G1 Spin the black circle Spin the black circle
 
 -|--8----------8-----------------------------------------------------------|--
 -|-11b13------11b13--11-8----8---------------------------------------------|--
 -|------------------------10----10b11-11-11-11-11-11-10b12r10p8----8h10p8--|--
 -|--------------------------------------------------------------10---------|--
 -|-------------------------------------------------------------------------|--
 -|-------------------------------------------------------------------------|--
 G2 hold bend---------|
 -|-------------------------------------------------------------------------|--
 -|-------------------------------------------------------------------------|--
 -|-10\9--8--7--5--------------10\9--8--7--5------------10\9-8-7-5----------|--
 -|-10\9--8--7--5--------------10\9--8--7--5------------10\9-8-7-5----------|--
 -|--8\7--6--5--3---------------8\7--6--5--3-------------8\7-6-5-3----------|--
 -|-------------------------------------------------------------------------|--

G1 Spin spin spin spin Spin spin Spin spin
 
 -|--11----11-11-11-11-11-11-11-11-11-11-11-11-11-11-11-11-11-11-11-11-11---|--
 -|--11b13-13-13-13-13-13-13-13-13-13-13-13-13-13-13-13-13-13-13-13-13-13---|--
 -|-------------------------------------------------------------------------|--
 -|-------------------------------------------------------------------------|--
 -|-------------------------------------------------------------------------|--
 -|-------------------------------------------------------------------------|--
 G2 hold bend---------------------------------------------------------|
 -|-------------------------------------------------------------------------|--
 -|-------------------------------------------------------------------------|--
 -|-------------------------------------------------------------------------|--
 -|------5-----------------------------6------7------8-----9----10----------|--
 -|------/-----------------------------/------/------/-----/-----/----------|--
 -|------/-----------------------------/------/------/-----/-----/----------|--

[G3]  
 
 -|-------------------------------------------------------------------------|--
 -|-------------------------------------------------------------------------|--
 -|-10\9--8--7--5-----------10\9--8--7--5--------10\9--8--7--5--------------|--
 -|-10\9--8--7--5-----------10\9--8--7--5--------10\9--8--7--5--------------|--
 -|--8\7--6--5--3------------8\7--6--5--3---------8\7--6--5--3--------------|--
 -|-------------------------------------------------------------------------|--

G1 Spin spin Spin spin
 
 -|-11-11-11-----------------------------8----------------------------------|--
 -|-13-13-13r11--11b13-11b13vvvvvvvvvvvv---11-8---11p8----8-----------------|--
 -|---------------------------------------------9------10--*b12r10p8----8vvv|--
 -|------------------------------------------------------------------10-----|--
 -|-------------------------------------------------------------------------|--
 -|-------------------------------------------------------------------------|--
 G2 -------| wide vibrato *pre-bend
 -|------------------------15-16-15-14-15-14-13-14-13-12--------------------|--
 -|-------------------------------------------------------------------------|--
 -|-------------------------------------------------------------------------|--
 -|-------------------------------------------------------------------------|--
 -|-------------------------------------------------------------------------|--
 -|-------------------------------------------------------------------------|--

[G3]  
 
 -|---------------------||-----------------------------------------------------
 -|---------------------||-----------------------------------------------------
 -|-10\9--8--7----------||-----------------------------------------------------
 -|-10\9--8--7----------||-----------------------------------------------------
 -|--8\7--6--5----------||-----------------------------------------------------
 -|-------------8b10r8\-||-----------------------------------------------------

[G1] [End]  
 
 -|---------------------||-----------------------------------------------------
 -|---------------------||-----------------------------------------------------
 -|-8vv-8vv-8-----------||-----------------------------------------------------
 -|---------------------||-----------------------------------------------------
 -|---------------------||-----------------------------------------------------
 -|---------------------||-----------------------------------------------------

[G2] [End]  
 
 -|-15-16---------------||-----------------------------------------------------
 -|---------------------||-----------------------------------------------------
 -|---------------------||-----------------------------------------------------
 -|---------------------||-----------------------------------------------------
 -|------------15-------||-----------------------------------------------------
 -|------------15-------||-----------------------------------------------------

[G3] [End]  

Important: The song above is NOT stored on the Chordie server. The original song is hosted at www.xguitar.com. Chordie works as a search engine and provides on-the-fly formatting. Chordie does not index songs against artists'/composers' will. To remove this song please click here.

Text color:
Chord color:
Chord grids: 
Font size:    
Page size: 

G2 G3
Rate #4 of 7 versions

Login - add to songbook

SHARE PAGE  



You need to log in to post comments