Guitar Tabs, Chords and Lyrics
Major upgrade!! After one year development the new version of Chordie is now online! Please give feedback.


After Hours  Phantom Planet

Band: Phantom Planet
Song: After Hours
Album: Phantom Planet
Tabbed By: Sea Napoleon
Opening
e---X[A]
[B---2]  
[G---2]  
[D---2]A---0
E---X
Verse
[E] [F#] [A] [E] [F#] [E2]  
 
 e---X---X---X--------X---X---X-|
 B---0---X---X--------0---X---X-|
 G---1---3---6--------1---3---9-|
 D---2---4---7--------2---4---9-|
 A---2---4---7--------2---4---7-|
 E---0---2---5--------0---2---X-|

Pre Chorus
 
 e---X---X---X---X-|
 B---0---X---X---X-|
 G---1---3---6---8-|
 D---2---4---7---9-|
 A---2---4---7---9-|
 E---0---2---5---7-|

Chorus
 
 e---X---X-|
 B---X---X-|
 G---9---8-|
 D---9---9-|
 A---7---9-|
 E---X---7-|

These are the chords; listen to the song for strumming. Its more of a guide than a tab,
you'll get the idea...

Important: The song above is NOT stored on the Chordie server. The original song is hosted at www.xguitar.com. Chordie works as a search engine and provides on-the-fly formatting. Chordie does not index songs against artists'/composers' will. To remove this song please click here.

Text color:
Chord color:
Chord grids: 
Font size:    
Page size: 

A E E2 F#
Rate #3 of 6 versions

Jango Player

Login - add to songbook

SHARE PAGE  




You need to log in to post comments