Guitar Tabs, Chords and Lyrics
Major upgrade!! After one year development the new version of Chordie is now online! Please give feedback.


Roggae  Phish

(Main Riff)
[s]  
 
 E-----------------------------------------------
 B----8--8/10------------------------------------
 G----9--9/11------------------------------------
 D-10--------------------------------------------
 A-----------------------------------------------
 E-----------------------------------------------

The circus is the place for me with bears and clowns and noise
I love the shiny music that descends from overhead
Gordon knew the moment when the stars all turned around
But from that vantage point I frowned
If life were easy and not so fast
I wouldn't think about the past.
I can't forget to turn the earth so both sides get their share of darkness and of light
[D]Ahh[Bm]hhhhhhh[G]hhhh (x2)-
So now I wander over grounds of light and heat and sound and mist
provoking dreams that don't exist
A circus of light where dreams can take flight
In the peacefulness dreaming dreams bring.
If life were easy and not so fast
I wouldn't think about the past
[D] [C] [F] [G] [F] [D]  
 
 E----------------------------------------------------------------
 B-------------1---3---1------------------------------------------
 G--7-----5----2---4---2---7--------------------------------------
 D--7-----5----3---5---3---7--------------------------------------
 A--5-----3----3---5---3---5--------------------------------------
 E-------------1---3---1------------------------------------------

If Life Were Easy.......
 
 E----------------12--------10-------------------------------------
 B------------10---------10---------12--------10----12--------10---
 G-------11-----------11-------- 11--------11---------------11-----
 D---12----------------------- 12--------12-------12---- 12--------
 A-----------------------------------------------------------------
 E-----------------------------------------------------------------


Important: The song above is NOT stored on the Chordie server. The original song is hosted at www.xguitar.com. Chordie works as a search engine and provides on-the-fly formatting. Chordie does not index songs against artists'/composers' will. To remove this song please click here.

Text color:
Chord color:
Chord grids: 
Font size:    
Page size: 

Bm C D F G
Rate #2 of 3 versions

Jango Player

Login - add to songbook

SHARE PAGE  




You need to log in to post comments