Guitar Tabs, Chords and Lyrics
Major upgrade!! After one year development the new version of Chordie is now online! Please give feedback.


The Bitter End   Placebo

 
 |-5---5-5-|
 |-6---6-6-|
 |-7---7-7-|
 |---------|
 |---------|
 |---------|

 


 [s] [s]  


 


 Verse [0:01], [1:12]


 

 
 |-5------5---5---------5------5---5---------5------5---5---------5------5---5--------|
 |-6------6---6---------6------6---6---------6------6---6---------6------6---6--------|
 |-7------7---7---------7------7---7---------7------7---7---------7------7---7--------|
 |------------------------------------------------------------------------------------|
 |------------------------------------------------------------------------------------|
 |------------------------------------------------------------------------------------|

 


 [s] [s] [s] [s] [s] [s] [s] [s] 


 [0:15], [1:17]


 

 
 |-----------------------------------------------------------------|
 |131313131313131311111111111111111010101010101010-8-8-8-8-8-8-8-8-|
 |-x-x-x-x-x-x-x-x-x-x-x-x-x-x-x-x-x-x-x-x-x-x-x-x-x-x-x-x-x-x-x-x-|
 |1010101010101010-8-8-8-8-8-8-8-8-7-7-7-7-7-7-7-7-5-5-5-5-5-5-5-5-|
 |-----------------------------------------------------------------|
 |-----------------------------------------------------------------|

 


 | |


 

 
 |-----------------------------------------------------------------|
 |-----------------------------------------------------------------|
 |-----------------------------------------------------------------|
 |-8-8-8-8-8-8-8-8-8-8-8-8-8-8-8-8-8-8-8-8-8-8-8-8-8-8-8-8-8-8-8-8-|
 |-8-8-8-8-8-8-8-8-8-8-8-8-8-8-8-8-8-8-8-8-8-8-8-8-8-8-8-8-8-8-8-8-|
 |-6-6-6-6-6-6-6-6-6-6-6-6-6-6-6-6-6-6-6-6-6-6-6-6-6-6-6-6-6-6-6-6-|

 


 (this part is in background)


 


 Chorus [0:52], [2:14]


 

 
 |-----------------------------------------------------------------|
 |-----------------------------------------------------------------|
 |-10101010--1010\--9-9-9-9---9-9\--7-7-7-7--7-7\--5-5-5-5---5-5/--|
 |--x-x-x-x---x-x---x-x-x-x---x-x---x-x-x-x--x-x---x-x-x-x---x-x---|
 |--8-8-8-8---8-8\--7-7-7-7---7-7\--5-5-5-5--5-5\--3-3-3-3---3-3/--|
 |-----------------------------------------------------------------|

 


 | |


 

 
 |-----------------------------------------------------------------|
 |-----------------------------------------------------------------|
 |-7-7-7-7-7-7-7-7-7-7-7-7-7-7-7-7-7-7-7-7-7-7-7-7-7-7-7-7-7-7-7-7-|
 |-7-7-7-7-7-7-7-7-7-7-7-7-7-7-7-7-7-7-7-7-7-7-7-7-7-7-7-7-7-7-7-7-|
 |-5-5-5-5-5-5-5-5-5-5-5-5-5-5-5-5-5-5-5-5-5-5-5-5-5-5-5-5-5-5-5-5-|
 |-----------------------------------------------------------------|

 


 x x x x x x x x x x x x x x x x x x x x x x x x


 


 

 
 |-----------------------------------------------------------------|
 |-13131313-1313\-11111111-1111\-10101010---1010\--8-8-8-8---8-8\--|
 |--x-x-x-x--x-x---x-x-x-x--x-x---x-x-x-x----x-x---x-x-x-x---x-x---|
 |-10101010-1010\--8-8-8-8--8-8\--7-7-7-7----7-7\--5-5-5-5---5-5\--|
 |-----------------------------------------------------------------|
 |-----------------------------------------------------------------|

 


 | |


 

 
 |-----------------------------------------------------------------|
 |-----------------------------------------------------------------|
 |-----------------------------------------------------------------|
 |-8-8-8-8-8-8-8-8-8-8-8-8-8-8-8-8-8-8-8-8-8-8-8-8-8-8-8-8-8-8-8-8-|
 |-8-8-8-8-8-8-8-8-8-8-8-8-8-8-8-8-8-8-8-8-8-8-8-8-8-8-8-8-8-8-8-8-|
 |-6-6-6-6-6-6-6-6-6-6-6-6-6-6-6-6-6-6-6-6-6-6-6-6-6-6-6-6-6-6-6-6-|

 


 


 Bridge [1:53]


 

 
 |-----------------------------------------------------------------|
 |-----------------------------------------------------------------|
 |-10101010--1010\--9-9-9-9---9-9\--7-7-7-7--7-7\--5-5-5-5---5-5/--|
 |--x-x-x-x---x-x---x-x-x-x---x-x---x-x-x-x--x-x---x-x-x-x---x-x---|
 |--8-8-8-8---8-8\--7-7-7-7---7-7\--5-5-5-5--5-5\--3-3-3-3---3-3/--|
 |-----------------------------------------------------------------|
 |-----------------------------------------------------------------|
 |-13131313-1313\-11111111-1111\-10101010---1010\--8-8-8-8---8-8\--|
 |--x-x-x-x--x-x---x-x-x-x--x-x---x-x-x-x----x-x---x-x-x-x---x-x---|
 |-10101010-1010\--8-8-8-8--8-8\--7-7-7-7----7-7\--5-5-5-5---5-5\--|
 |-----------------------------------------------------------------|
 |-----------------------------------------------------------------|
 |-----------------------------------------------------------------|
 |-----------------------------------------------------------------|
 |-10101010--1010\--9-9-9-9---9-9\--7-7-7-7--7-7\--5-5-5-5---5-5/--|
 |--x-x-x-x---x-x---x-x-x-x---x-x---x-x-x-x--x-x---x-x-x-x---x-x---|
 |--8-8-8-8---8-8\--7-7-7-7---7-7\--5-5-5-5--5-5\--3-3-3-3---3-3/--|
 |-----------------------------------------------------------------|

 


 | |


 

 
 |-----------------------------------------------------------------|
 |-----------------------------------------------------------------|
 |-7-7-7-7-7-7-7-7-7-7-7-7-7-7-7-7-7-7-7-7-7-7-7-7-7-7-7-7-7-7-7-7-|
 |-7-7-7-7-7-7-7-7-7-7-7-7-7-7-7-7-7-7-7-7-7-7-7-7-7-7-7-7-7-7-7-7-|
 |-5-5-5-5-5-5-5-5-5-5-5-5-5-5-5-5-5-5-5-5-5-5-5-5-5-5-5-5-5-5-5-5-|
 |-----------------------------------------------------------------|

 


 x x x x x x x x x x x x x x x x x x x x x x x x


 


 

 
 |-----------------------------------------------------------------|
 |-13131313-1313\-11111111-1111\-10101010---1010\--8-8-8-8---8-8\--|
 |--x-x-x-x--x-x---x-x-x-x--x-x---x-x-x-x----x-x---x-x-x-x---x-x---|
 |-10101010-1010\--8-8-8-8--8-8\--7-7-7-7----7-7\--5-5-5-5---5-5\--|
 |-----------------------------------------------------------------|
 |-----------------------------------------------------------------|

 


 | |


 

 
 |-----------------------------------------------------------------|
 |-----------------------------------------------------------------|
 |-----------------------------------------------------------------|
 |-8-8-8-8-8-8-8-8-8-8-8-8-8-8-8-8-8-8-8-8-8-8-8-8-8-8-8-8-8-8-8-8-|
 |-8-8-8-8-8-8-8-8-8-8-8-8-8-8-8-8-8-8-8-8-8-8-8-8-8-8-8-8-8-8-8-8-|
 |-6-6-6-6-6-6-6-6-6-6-6-6-6-6-6-6-6-6-6-6-6-6-6-6-6-6-6-6-6-6-6-6-|

 


 


 [2:35] [2:45] [2:50] 


 

 
 |---------------||--------------||--------------|
 |---------------||--------------||--------------|
 |-7++++++++-----||-10++++-------||-11++++-------|
 |-x-------------||--x-----------||--x-----------|
 |-5++++++++-----||--7++++-------||--8++++-------|
 |---------------||--------------||--------------|

 


 


 Outro [2:55] [3:00] [3:06]


 

 
 |--------------|-------------|-----|
 |-15++++-17-17-|-18-18-17-17-|-15\-|
 |--x------x--x-|--x--x--x--x-|--x--|
 |-12++++-14-14-|-15-15-14-14-|-12\-|
 |--------------|-------------|-----|
 |--------------|---8-TIMES---|-----|


Important: The song above is NOT stored on the Chordie server. The original song is hosted at www.xguitar.com. Chordie works as a search engine and provides on-the-fly formatting. Chordie does not index songs against artists'/composers' will. To remove this song please click here.

This song is displayed as text-only. Transposing and tuning is only available for chordpro-songs.
Rate #8 of 8 versions

Login - add to songbook

SHARE PAGE  



You need to log in to post comments