Guitar Tabs, Chords and Lyrics
Major upgrade!! After one year development the new version of Chordie is now online! Please give feedback.


Electioneering  Radiohead

Riff A
 
 d-----5-----5-----5---------
 B-------6-----6-----6---6---
 G---------7-----7-----7---7-
 D-0-7-----------------------
 A---------------------------
 E---------------------------
 Riff B --------]
 e--------------------------10h12-10----------
 B---8-6-8-6-8-6----8-6-8-6----------12-------
 G-7-------------7----------------------12-10-{Riff B x2)
 D--------------------------------------------
 A--------------------------------------------
 E--------------------------------------------

[C] [Am]  
 
 e-----------------------
 B-/6--------------------
 G--------(C)-----(Am)--7
 D-----------------------
 A-----------------------
 E-----------------------

1.5 CHORUS
 
 e------------------------------------------------------------------------
 B--8-6-8-6-12/\--------8-6-8-6-------------------------------------------
 G---------------10/\(10)-------4-5-6-6----14-12-10-9---------------------
 D-----------------------------------------------------12-10-7------------
 A-------------------------------------------------------------10-8-8-7-7-
 E------------------------------------------------------------------------
 e------------------------------------------------------------------------
 B------------------------------------------------------------------------
 G------------------------------------------------------------------------
 D------------------------------------------------------------------------
 A--5-5--3-3--------------------------------------------------------------
 E------------5-5--3-3--1-1--0-0---1---3---5--7-7-7--8---10---12--14-14-14
 (1st----------------------------------------
 Trem.---------] 1.5
 e----------------------------------------------------------10h12-10-------
 B-----------------------------10-12-12/\----------8-6-8-6-----------12----
 G----------------------------------------10/\(10)-------------------------
 D------------10--12/\/\/\/\-----------------------------------------------
 A-10--12--14--------------------------------------------------------------
 E-------------------------------------------------------------------------
 ------------------------------------------------------------------------] 

1.5 rel.
 
 e-------------------------------------------------------------------------
 B-------8-6-8-6-10-12-12/--------8-6-8-6-/8-8\-6h8p6--8-6-8-6-------------
 G-12-10------------------10/\(10)-----------------------------4-5-6-6-7---
 D-------------------------------------------------------------------------
 A-------------------------------------------------------------------------
 E-------------------------------------------------------------------------
 (2nd----------------------------------------]
 Trem.--------------------------------] Trill.
 e-------------------------------------------------------------------------
 B-------------------------------------------------------------------------
 G-------------------------------------------------------------------------
 D-------------------------------------------------------------------------
 A-------------------------------------------------------------------------
 E-15-----14-15--17--------10-----13-----12(13)----------------------------

SOLO:( most of which you can just trash around )
 
 e-------------------------------------------------------------------------
 B-15--13--12--10--13--12--10--9-9-9h10p9-9-9h10p9-9-9h10p9-9-9h10p9-9-----
 G-------------------------------------------------------------------------
 D-------------------------------------------------------------------------
 A-------------------------------------------------------------------------
 E-------------------------------------------------------------------------

.25 .25 .25 .25 .25
 
 e-------------------------------------------------------------------------
 B-9h10p9-9--5/--x-5-5-5/-x-x-5/-x-x-5-3-2-0--x-x-5/--x-13-12--4-5/-x-13-12
 G-------------------------------------------------------------------------
 D-------------------------------------------------------------------------
 A-------------------------------------------------------------------------
 E-------------------------------------------------------------------------
 [------- x2-------------] [------------- x2------------]
 e-------------------------------------------------------------------------
 B-5-*---------------------------------------------------------------------
 G--------14-x-x-13-x-x-12-10-10-9---x-17-17-x-16-16-x-15-13-13-11---------
 D-------------------------------------------------------------------------
 A--------12-x-x-11-x-x-10-8--8--7---x-15-15-x-14-14-x-13-11-11-9---------
 E-------------------------------------------------------------------------
 e-5----5-----5-----5------5-----------------------------------------------
 B-6----6-----6-----6------6-----------------------------------------------
 G-7----7-----7-----7------7-----------------------------------------------
 D-7----7-----7-----7------7-----------------------------------------------
 A-------------------------------------------------------------------------
 E-------------------------------------------------------------------------


Important: The song above is NOT stored on the Chordie server. The original song is hosted at www.xguitar.com. Chordie works as a search engine and provides on-the-fly formatting. Chordie does not index songs against artists'/composers' will. To remove this song please click here.

Text color:
Chord color:
Chord grids: 
Font size:    
Page size: 

Am C
Rate #2 of 3 versions

Jango Player

Login - add to songbook

SHARE PAGE  




You need to log in to post comments